Oops, an error
Loading. Please wait.

Revelation tab

version 1
version 1

Whole song

Interactive

2,989 views 1 this week
no commentswrite comment
1 2 3 4 5
2 more votes to show rating
add to favorites
×
Save as Personal and add changes to this tab that will be seen only by you. Learn more ›
×
You can save this tab as Personal to edit and correct it or add notes. All changes will be seen only by you. Learn more »
launch autoscroll
font size
0
reset
how to read this tab
guitar tuner
edit
Autoscroll
slow
fast
+/-
esc
set tempo
stop
#----------------------------------PLEASE NOTE---------------------------------#
#This file is the author's own work and represents their interpretation of the #
#song. You may only use this file for private study, scholarship, or research. #
#------------------------------------------------------------------------------#

REVELATION
As recorded by Symphony X
(From the 2007 Album PARADISE LOST)

Transcribed by Michael mmbah54@yahoo.com
        

Words and Music by Symphony X
Arranged by Symphony X

Gtr I (D G C F A D) - 'Lead'
Gtr II (D G C F A D) - 'Rhythm'
Gtr III (D G C F A D) - 'Clean'
Gtr IV (D G C F A D) - 'Muted'
Gtr V (D G C F A D) - 'Solo'

 Intro
  Q=142
 3/4
  Gtr I
  Q    E  E  Q    Q   E  E  E  E   Q   E  E  E  E    E   E  E  E  E   E
|---------------|----------------|----12-11-12----|---------------------|
|-----12-10-12--|----13-12-12-10-|-------------12-|-12--10-10-----------|
|---------------|----------------|----------------|-----------12-12--11-|
|---------------|----------------|----------------|---------------------|
|---------------|----------------|----------------|---------------------|
|---------------|----------------|----------------|---------------------|
|
| Gtr II
|                                  PM
| E e  Q     Q    Q   Q     Q      Q   Q     Q       Q.        E +Q
|---------------|----------------|----------------|---------------------|
|---------------|----------------|----------------|---------------------|
|---------------|----------------|----------------|---------------------|
|---------------|-2--------------|----------------|--4---------7-(7)----|
|-2-2-----------|-0--------------|-2--------------|--2---------5-(5)----|
|-0-0-----------|----------------|-0--------------|---------------------|


  E E  E  E  Q    Q   E  E  E  E   Q   E  E  E  E    E   E  E  E  E   E
|---------------|----------------|----12-11-12----|-12--11-11-12-14--15-|
|-----12-10-12--|----13-12-12-10-|-------------12-|---------------------|
|-9-------------|----------------|----------------|---------------------|
|---------------|----------------|----------------|---------------------|
|---------------|----------------|----------------|---------------------|
|---------------|----------------|----------------|---------------------|
|
| E e  Q     Q    Q   Q     Q      Q   Q     Q       Q.        E +Q
|---------------|----------------|----------------|---------------------|
|---------------|----------------|----------------|---------------------|
|---------------|----------------|----------------|---------------------|
|---------------|-2--------------|----------------|--5---------4-(4)----|
|-2-2-----------|-0--------------|-2--------------|--3---------2-(2)----|
|-0-0-----------|----------------|-0--------------|---------------------|


   E E  E  E  Q    Q   E  E  E  E   Q   E  E  E  E    E   E  E  E  E   E
|-12-------------|----------------|----12-11-12----|---------------------|
|------12-10-12--|----13-12-12-10-|-------------12-|-12--10-10-----------|
|----------------|----------------|----------------|-----------12-12--11-|
|----------------|----------------|----------------|---------------------|
|----------------|----------------|----------------|---------------------|
|----------------|----------------|----------------|---------------------|
|
|  E e  Q     Q    Q   Q     Q      Q   Q     Q       Q.        E +Q
|----------------|----------------|----------------|---------------------|
|----------------|----------------|----------------|---------------------|
|----------------|----------------|----------------|---------------------|
|----------------|-2--------------|----------------|--4---------7-(7)----|
|--2-2-----------|-0--------------|-2--------------|--2---------5-(5)----|
|--0-0-----------|----------------|-0--------------|---------------------|


  E E  E  E  Q    Q   E  E  E  E   Q   E  E  E  E    E   E  E  E  E   E
|---------------|----------------|----12-11-12----|-12--11-11-12-14--15-|
|-----12-10-12--|----13-12-12-10-|-------------12-|---------------------|
|-9-------------|----------------|----------------|---------------------|
|---------------|----------------|----------------|---------------------|
|---------------|----------------|----------------|---------------------|
|---------------|----------------|----------------|---------------------|
|
| E e  Q     Q    Q   Q     Q      Q   Q     Q       Q.        E +Q
|---------------|----------------|----------------|---------------------|
|---------------|----------------|----------------|---------------------|
|---------------|----------------|----------------|---------------------|
|---------------|-2--------------|----------------|--5---------4-(4)----|
|-2-2-----------|-0--------------|-2--------------|--3---------2-(2)----|
|-0-0-----------|----------------|-0--------------|---------------------|


   Q    E  E    Q         Q   E  E  E  E
|-16--------------------|----------------|
|------16-14---16-------|----17-16-16-14-|
|-----------------------|----------------|
|-----------------------|----------------|
|-----------------------|----------------|
|-----------------------|----------------|
|
|          PM---------|
|  E e  E  S S  S S S S   Q   E  E  E  E
|-----------------------|----------------|
|-----------------------|----------------|
|-----------------------|----------------|
|--6-6------------------|-6---9--8--8--6-|
|--6-6------------------|-4---7--6--6--4-|
|--4-4-----4-4--4---4-4-|----------------|


  Q    E  E    E    E      E  E  E    E  E   E
|-----16-15---16--------|----------------------|
|------------------16---|-16-14-14-------------|
|-----------------------|------------16-16--15-|
|-----------------------|----------------------|
|-----------------------|----------------------|
|-----------------------|----------------------|
|
|         PM----------|          PM
| E e  E  S S  S S  S S    Q     s S  E +Q
|-----------------------|----------------------|
|-----------------------|----------------------|
|-----------------------|----------------------|
|-6-6-------------------|-------------4-(4)----|
|-6-6-------------------|--6----------4-(4)----|
|-4-4-----4-4--4----4-4-|--6-----4-------------|


   E E  E  E    Q         Q   E  E  E  E   Q    E  E    E    E
|-----------------------|----------------|-----16-15---16--------|
|------16-14---16-------|----17-16-16-14-|------------------16---|
|-13--------------------|----------------|-----------------------|
|-----------------------|----------------|-----------------------|
|-----------------------|----------------|-----------------------|
|-----------------------|----------------|-----------------------|
|
|          PM---------|                            PM----------|
|  E e  E  S S  S S S S   Q   E  E  E  E   E e  E  S S  S S  S S
|-----------------------|----------------|-----------------------|
|-----------------------|----------------|-----------------------|
|-----------------------|----------------|-----------------------|
|--6-6------------------|-6---9--8--8--6-|-6-6-------------------|
|--6-6------------------|-4---7--6--6--4-|-6-6-------------------|
|--4-4-----4-4--4---4-4-|----------------|-4-4-----4-4--4----4-4-|


        |--3--|  |--3--|  |--3--|  |--3---|  |-3--|
    E   S  S  S  S  S  S  S  S  S  S   S  S  S  S S
|-/23--21-19-18-------------------------------------|
|---------------21-19-17-16-14-12-------------------|
|---------------------------------15--13-11---------|
|-------------------------------------------13-11-9-|
|---------------------------------------------------|
|---------------------------------------------------|
|
|   Q.                    E       +Q
|---------------------------------------------------|
|---------------------------------------------------|
|---------------------------------------------------|
|---9---------------------8-------(8)---------------|
|---7---------------------6-------(6)---------------|
|---------------------------------------------------|


   Q    E  E    Q         Q   E  E  E  E
|-----------------------|----------------|
|------16-14---16-------|----17-16-16-14-|
|-----------------------|----------------|
|-----------------------|----------------|
|-11--------------------|----------------|
|-----------------------|----------------|
|
|          PM---------|
|  E e  E  S S  S S S S   Q   E  E  E  E
|-----------------------|----------------|
|-----------------------|----------------|
|-----------------------|----------------|
|--6-6------------------|-6---9--8--8--6-|
|--6-6------------------|-4---7--6--6--4-|
|--4-4-----4-4--4---4-4-|----------------|


  Q    E  E    E    E      E  E  E    E  E   E
|-----16-15---16--------|----------------------|
|------------------16---|-16-14-14-------------|
|-----------------------|------------16-16--15-|
|-----------------------|----------------------|
|-----------------------|----------------------|
|-----------------------|----------------------|
|
|         PM----------|          PM
| E e  E  S S  S S  S S    Q     s S  E +Q
|-----------------------|----------------------|
|-----------------------|----------------------|
|-----------------------|----------------------|
|-6-6-------------------|-------------4-(4)----|
|-6-6-------------------|--6----------4-(4)----|
|-4-4-----4-4--4----4-4-|--6-----4-------------|


   E E  E  E    Q         Q   E  E  E  E
|-----------------------|----------------|
|------16-14---16-------|----17-16-16-14-|
|-13--------------------|----------------|
|-----------------------|----------------|
|-----------------------|----------------|
|-----------------------|----------------|
|
|          PM---------|
|  E e  E  S S  S S S S   Q   E  E  E  E
|-----------------------|----------------|
|-----------------------|----------------|
|-----------------------|----------------|
|--6-6------------------|-6---9--8--8--6-|
|--6-6------------------|-4---7--6--6--4-|
|--4-4-----4-4--4---4-4-|----------------|


  Q    E  E    E    E      E   E  E  E  E   E
|-----16-15---16--------|-16--15-15-16-18--19--|
|------------------16---|----------------------|
|-----------------------|----------------------|
|-----------------------|----------------------|
|-----------------------|----------------------|
|-----------------------|----------------------|
|
|         PM----------|
| E e  E  S S  S S  S S    Q.        E +Q
|-----------------------|----------------------|
|-----------------------|----------------------|
|-----------------------|----------------------|
|-6-6-------------------|--9---------8-(8)-----|
|-6-6-------------------|--7---------6-(6)-----|
|-4-4-----4-4--4----4-4-|----------------------|


 4/4                                3/4
   W           +W                    W
|-20--------|-(20)-----------------|---------------|
|-----------|----------------------|---------------|
|-----------|----------------------|---------------|
|-----------|----------------------|---------------|
|-----------|----------------------|---------------|
|-----------|----------------------|---------------|
|
|                         PM|
|  W           +H     +E  S S  Q     S S S S Q  Q
|--1--------|--(1)----(1)----------|---------------|
|--1--------|--(1)----(1)----------|---------------|
|--1--------|--(1)----(1)----------|---------------|
|--3--------|--(3)----(3)----------|---------------|
|--3--------|--(3)----(3)-----/8\--|---------------|
|--1--------|--(1)----(1)-1-1------|-2p1h2p1-------|


  W               W               W
|---------------|---------------|----------------------|
|---------------|---------------|----------------------|
|---------------|---------------|----------------------|
|---------------|---------------|----------------------|
|---------------|---------------|----------------------|
|---------------|---------------|----------------------|
|
|                                          \5____/
| S S S S Q  Q    S S S S Q  Q    S S S S +Q    +Q
|---------------|---------------|----------------------|
|---------------|---------------|----------------------|
|---------------|---------------|----------------------|
|---------------|---------------|----------------------|
|---------------|---------------|----------------------|
|-2p1h2p1-------|-2p1h2p1-------|-2p1h2p1-(1)---(1)----|


   Verse
    Gtr II
              PM--------|             PM--------|
    S S S S E S S S S S S   S S S S E S S S S S S
||------------------------|-----------------------|
||o-----------------------|-----------------------|
||------------------------|-----------------------|
||------------------------|---------------1-------|
||o---------------4-3-2-3-|-----------------4-3-4-|
||--2p1h2p1---1-4---------|-2p1h2p1---1-4---------|


                          1.,2.           3.
            PM--------|                   PM----|  ~~~
  S S S S E S S S S S S   E E E E E E     e e e e  Q
|-----------------------|--------------||----------------|
|-----------------------|-------------o||----------------|
|-----------------------|--------------||----------------|
|---------------4-3-1-3-|-4-3-3-6-6-5--||-4-3-3-6--------|
|-----------------------|-2-1-1-4-4-3-o||-2-1-1-4-[4]----|
|-2p1h2p1---1-4---------|--------------||----------------|


              PM--------|             PM--------|
    S S S S E S S S S S S   S S S S E S S S S S S
||------------------------|-----------------------|
||o-----------------------|-----------------------|
||------------------------|-----------------------|
||------------------------|---------------1-------|
||o---------------4-3-2-3-|-----------------4-3-4-|
||--2p1h2p1---1-4---------|-2p1h2p1---1-4---------|


                          1.              2.
            PM--------|
  S S S S E S S S S S S   E E E E E E     E E E E Q
|-----------------------|--------------||--------------|
|-----------------------|-------------o||--------------|
|-----------------------|--------------||--------------|
|---------------4-3-1-3-|-4-3-3-6-6-5--||-4-3-3-6-6----|
|-----------------------|-2-1-1-4-4-3-o||-2-1-1-4-4----|
|-2p1h2p1---1-4---------|--------------||--------------|


              PM--------|
    S S S S S S S S S S S S   S S S S S S S S S S S S
||--------------------------|-------------------------|
||o-------------------------|-------------------------|
||--------------------------|-------------------------|
||--------------------------|-------------------------|
||o-------------------------|-------------------------|
||--1p0h1p0---0-0---0-0-0---|-1p0h1p0---0h1p0h1h4p1p0-|


            PM--------|
  S S S S S S S S S S S S   S S S S S S S S Q     4x
|-------------------------|-----------------------||
|-------------------------|----------------------o||
|-------------------------|-----------------------||
|-------------------------|-----------------3-----||
|-------------------------|-----------------1----o||
|-1p0h1p0---0-0---0-0-0---|-1p0h1p0---0h1p0-------||


   Pre-Chorus
   5/4
    W        +Q     W        +Q
||----------------|---------------|
||o---------------|-6--------(6)--|
||--6--------(6)--|-6--------(6)--|
||--6--------(6)--|-6--------(6)--|
||o-4--------(4)--|-4--------(4)--|
||--4--------(4)--|-4--------(4)--|


  1.
 3/4
            PM--------|               PM--------|
  S S S S S S S S S S S S   S S S S S S S S S S S S
|-------------------------|-------------------------|
|-------------------------|-------------------------|
|-------------------------|-------------------------|
|-------------------------|-------------------------|
|-------------------------|-------------------------|
|-1p0h1p0---0-0---0-0-0---|-1p0h1p0---0-0---0-0-0---|


            PM--------|               PM--------|
  S S S S S S S S S S S S   S S S S S S S S S S S S
|-------------------------|---------------------------||
|-------------------------|--------------------------o||
|-------------------------|---------------------------||
|-------------------------|---------------------------||
|-------------------------|--------------------------o||
|-1p0h1p0---0-0---0-0-0---|-1p0h1p0---0-0---0-0-0-----||


  2.
 3/4
    PM----------------|     PM------------------|
  e S S S S S S S S S S   S S S S S S S S S S S S
|-----------------------|-------------------------|
|-----------------------|-------------------------|
|-----------------------|-------------------------|
|-8---------------------|-8-----------------------|
|-6-6-6-6-6-6-6-6-6-6-6-|-6-6-6-6-6-6-6-6-6-6-6-6-|
|-----------------------|-------------------------|


          |-3-|
  S S S S S S S S S S S S S   S S S S S S S S Q
|---------------------------|----------------------|
|---------------------------|----------------------|
|---------6h8p6-------------|----------------------|
|-5-8-6-8-------9-8-6-5-6-8-|-6-5------------------|
|---------------------------|-----7-6-4------------|
|---------------------------|-----------7-6-4-3----|


   Chorus
          PM--------|                      PM--------|      PM
    E e E S S S S S S   Q  E E E E   E e E S S S S S S   Q  s S E +Q
||--------------------|------------|-------------------|----------------|
||o-------------------|------------|-------------------|----------------|
||--------------------|------------|-------------------|----------------|
||--6-6---------------|-6--9-8-8-6-|-6-6---------------|--------4-(4)---|
||o-6-6---------------|-4--7-6-6-4-|-6-6---------------|-6------4-(4)---|
||--4-4---4-4-4---4-4-|------------|-4-4---4-4-4---4-4-|-6--4-----------|


        PM--------|                      PM--------|
  E e E S S S S S S   Q  E E E E   E e E S S S S S S   Q.   E +Q
|-------------------|------------|-------------------|---------------||
|-------------------|------------|-------------------|--------------o||
|-------------------|------------|-------------------|---------------||
|-6-6---------------|-6--9-8-8-6-|-6-6---------------|-9----8-(8)----||
|-6-6---------------|-4--7-6-6-4-|-6-6---------------|-7----6-(6)---o||
|-4-4---4-4-4---4-4-|------------|-4-4---4-4-4---4-4-|---------------||


   Pre-Verse
              PM--------|             PM--------|
    S S S S E S S S S S S   S S S S E S S S S S S
||------------------------|-----------------------|
||o-----------------------|-----------------------|
||------------------------|-----------------------|
||------------------------|---------------4-------|
||o---------------7-6-5-6-|-----------------7-6-7-|
||--5p4h5p4---4-7---------|-5p4h5p4---4-7---------|


                          1.              2.
                                         5/4
            PM--------|                                PM----|
  S S S S E S S S S S S   E E E E E E      E e E E e e e e e e
|-----------------------|--------------||------------------------|
|-----------------------|-------------o||------------------------|
|-----------------------|--------------||------------------------|
|---------------7-6-4-6-|-7-6-6-9-9-8--||--7-6---9-8-------------|
|-----------------------|-5-4-4-7-7-6-o||--5-4---7-6-6-4-5-4-5---|
|-5p4h5p4---4-7---------|--------------||--------------4-5-4-5---|


 4/4
  Gtr II
                                           PM----------|
  W          +H     +E   E +Q      S S S S S S S S S S S S S S S S
|----------|---------------------|---------------------------------|
|----------|---------------------|---------------------------------|
|----------|---------------------|---------------------------------|
|----------|---------------------|---------------------------------|
|-5--------|-(5)----(5)-/9-(9)\--|---------------------------------|
|-3--------|-(3)----(3)----------|-3p2h3p2---2-2---2-2-2---3p2h3p2-|
|
| Gtr I
| W           W                    W
|----------|---------------------|---------------------------------|
|----------|---------------------|---------------------------------|
|----------|---------------------|---------------------------------|
|----------|---------------------|---------------------------------|
|----------|---------------------|-4-------------------------------|
|----------|---------------------|-2-------------------------------|


      PM----------|           PM------------|             PM----------|
   S  S S S S S S S S S S S S S S S    S  S S S S S S S S S S S S S S S
|-----------------------------------|------------------------------------|
|-----------------------------------|------------------------------------|
|-----------------------------------|------------------------------------|
|-----------------------------------|------------------------------------|
|-----------------------------------|------------------------------------|
|-----2-2---2-2-2---3p2h3p2---2-2---|--2--2-2---3p2h3p2---2-2---2-2-2----|
|
| +W                                  +W
|-----------------------------------|------------------------------------|
|-----------------------------------|------------------------------------|
|-----------------------------------|------------------------------------|
|-----------------------------------|------------------------------------|
|-(4)-------------------------------|-(4)--------------------------------|
|-(2)-------------------------------|-(2)--------------------------------|


 Verse
  Gtr III
  Q       E   E   E   E   +E   E     E   E   +Q        +H
|-2--------------------------------|------------------------------------|
|---------2-----------2---(2)--3---|-----2---(2)-------(2)--------------|
|-------------2---4----------------|-4----------------------------------|
|----------------------------------|------------------------------------|
|----------------------------------|------------------------------------|
|----------------------------------|------------------------------------|
|
|           PM--------|                PM----------|              PM-----
| S S S S S S S S S S S S  S S S S   S S S S  S  S S S  S S S S S S S S
|----------------------------------|------------------------------------|
|----------------------------------|------------------------------------|
|----------------------------------|------------------------------------|
|----------------------------------|------------------------------------|
|----------------------------------|------------------------------------|
|-3p2h3p2---2-2---2-2-2----3p2h3p2-|---2-2----2--2-2----3p2h3p2---2-2---|


  W                                 W
|---------------------------------|------------------------------------|
|---------------------------------|------------------------------------|
|---------------------------------|------------------------------------|
|---------------------------------|------------------------------------|
|---------------------------------|------------------------------------|
|---------------------------------|------------------------------------|
|
|-----|             PM--------|             PM----------|
| S S S S S S S S S S S S S S S S   S S S S S S S S S S S S S S S S
|---------------------------------|------------------------------------|
|---------------------------------|------------------------------------|
|---------------------------------|------------------------------------|
|---------------------------------|------------------------------------|
|---------------------------------|------------------------------------|
|-2-2-2---3p2h3p2---2-2---2-2-2---|-3p2h3p2---2-2---2-2-2---3p2h3p2----|


  Q       E   E   E   E   +E    E     E   E   +Q       +H
|-2---------------------------------|------------------------------------|
|---------2-----------2---(2)---3---|-----2---(2)------(2)---------------|
|-------------2---4-----------------|-4----------------------------------|
|-----------------------------------|------------------------------------|
|-----------------------------------|------------------------------------|
|-----------------------------------|------------------------------------|
|
|   PM--------|               PM----------|                PM--------|
| S S S S S S S S S S S S  S  S S S   S S S S  S S S S  S  S S S S S S S
|-----------------------------------|------------------------------------|
|-----------------------------------|------------------------------------|
|-----------------------------------|------------------------------------|
|-----------------------------------|------------------------------------|
|-----------------------------------|------------------------------------|
|---2-2---2-2-2---3p2h3p2-----2-2---|-2-2-2----3p2h3p2-----2-2---2-2-2---|


  W                                 W
|---------------------------------|------------------------------------|
|---------------------------------|------------------------------------|
|---------------------------------|------------------------------------|
|---------------------------------|------------------------------------|
|---------------------------------|------------------------------------|
|---------------------------------|------------------------------------|
|
|           PM--------|               PM--------|             PM|
| S S S S S S S S S S S S S S S S   S S S S S S S S S S S S S S S S
|---------------------------------|------------------------------------|
|---------------------------------|------------------------------------|
|---------------------------------|------------------------------------|
|---------------------------------|------------------------------------|
|---------------------------------|------------------------------------|
|-3p2h3p2---2-2---2-2-2---3p2h3p2-|---2-2---2-2-2---3p2h3p2---2-2------|


  Q       E   E   E   E   +E    E     E   E   +Q        +H
|-2---------------------------------|-------------------------------------|
|---------2-----------2---(2)---3---|-----2---(2)-------(2)---------------|
|-------------2---4-----------------|-4-----------------------------------|
|-----------------------------------|-------------------------------------|
|-----------------------------------|-------------------------------------|
|-----------------------------------|-------------------------------------|
|
| PM--|             PM----------|                 PM----------|
| S S S S S S S S S S S S  S  S S S   S S S S  S  S S S  S  S S S S S S S
|-----------------------------------|-------------------------------------|
|-----------------------------------|-------------------------------------|
|-----------------------------------|-------------------------------------|
|-----------------------------------|-------------------------------------|
|-----------------------------------|-------------------------------------|
|-2-2-2---3p2h3p2---2-2----2--2-2---|-3p2h3p2-----2-2----2--2-2---3p2h3p2-|


  W                                 W
|---------------------------------|------------------------------------|
|---------------------------------|------------------------------------|
|---------------------------------|------------------------------------|
|---------------------------------|------------------------------------|
|---------------------------------|------------------------------------|
|---------------------------------|------------------------------------|
|
|   PM--------|             PM----------|             PM--------|
| S S S S S S S S S S S S S S S S   S S S S S S S S S S S S S S S S
|---------------------------------|------------------------------------|
|---------------------------------|------------------------------------|
|---------------------------------|------------------------------------|
|---------------------------------|------------------------------------|
|---------------------------------|------------------------------------|
|---2-2---2-2-2---3p2h3p2---2-2---|-2-2-2---3p2h3p2---2-2---2-2-2------|


  Q       E   E   E   E   +E   E     E   E   +Q        +H
|-2--------------------------------|------------------------------------|
|---------2-----------2---(2)--3---|-----2---(2)-------(2)--------------|
|-------------2---4----------------|-4----------------------------------|
|----------------------------------|------------------------------------|
|----------------------------------|------------------------------------|
|----------------------------------|------------------------------------|
|
|           PM--------|                PM----------|              PM-----
| S S S S S S S S S S S S  S S S S   S S S S  S  S S S  S S S S S S S S
|----------------------------------|------------------------------------|
|----------------------------------|------------------------------------|
|----------------------------------|------------------------------------|
|----------------------------------|------------------------------------|
|----------------------------------|------------------------------------|
|-3p2h3p2---2-2---2-2-2----3p2h3p2-|---2-2----2--2-2----3p2h3p2---2-2---|


  W                                 W
|---------------------------------|------------------------|
|---------------------------------|------------------------|
|---------------------------------|------------------------|
|---------------------------------|------------------------|
|---------------------------------|------------------------|
|---------------------------------|------------------------|
|
|-----|             PM--------|               PM|
| S S S S S S S S S S S S S S S S   S S S S S S S S Q  Q
|---------------------------------|------------------------|
|---------------------------------|------------------------|
|---------------------------------|-----------------4------|
|---------------------------------|-----------------2--4---|
|---------------------------------|--------------------2---|
|-2-2-2---3p2h3p2---2-2---2-2-2---|-3p2h3p2---2-2----------|


   Pre-Chorus
   5/4
    Gtr II
    W        +Q     W        +Q
||----------------|---------------|
||o---------------|-6--------(6)--|
||--6--------(6)--|-6--------(6)--|
||--6--------(6)--|-6--------(6)--|
||o-4--------(4)--|-4--------(4)--|
||--4--------(4)--|-4--------(4)--|


  1.
 3/4
            PM--------|               PM--------|
  S S S S S S S S S S S S   S S S S S S S S S S S S
|-------------------------|-------------------------|
|-------------------------|-------------------------|
|-------------------------|-------------------------|
|-------------------------|-------------------------|
|-------------------------|-------------------------|
|-1p0h1p0---0-0---0-0-0---|-1p0h1p0---0-0---0-0-0---|


            PM--------|               PM--------|
  S S S S S S S S S S S S   S S S S S S S S S S S S
|-------------------------|---------------------------||
|-------------------------|--------------------------o||
|-------------------------|---------------------------||
|-------------------------|---------------------------||
|-------------------------|--------------------------o||
|-1p0h1p0---0-0---0-0-0---|-1p0h1p0---0-0---0-0-0-----||


  2.
    PM----------------|     PM------------------|
  e S S S S S S S S S S   S S S S S S S S S S S S
|-----------------------|-------------------------|
|-----------------------|-------------------------|
|-----------------------|-------------------------|
|-8---------------------|-8-----------------------|
|-6-6-6-6-6-6-6-6-6-6-6-|-6-6-6-6-6-6-6-6-6-6-6-6-|
|-----------------------|-------------------------|


                                               ~~~
          |-3-|
  S S S S S S S S S S S S S   S S S S S S S S  Q
|---------------------------|----------------------|
|---------------------------|----------------------|
|---------6h8p6-------------|----------------------|
|-5-8-6-8-------9-8-6-5-6-8-|-6-5------------------|
|---------------------------|-----7-6-4------------|
|---------------------------|-----------7-6-4-[3]--|


   Chorus
          PM--------|                      PM--------|      PM
    E e E S S S S S S   Q  E E E E   E e E S S S S S S   Q  s S E +Q
||--------------------|------------|-------------------|----------------|
||o-------------------|------------|-------------------|----------------|
||--------------------|------------|-------------------|----------------|
||--6-6---------------|-6--9-8-8-6-|-6-6---------------|--------4-(4)---|
||o-6-6---------------|-4--7-6-6-4-|-6-6---------------|-6------4-(4)---|
||--4-4---4-4-4---4-4-|------------|-4-4---4-4-4---4-4-|-6--4-----------|


        PM--------|                      PM--------|
  E e E S S S S S S   Q  E E E E   E e E S S S S S S   Q.   E +Q
|-------------------|------------|-------------------|---------------||
|-------------------|------------|-------------------|--------------o||
|-------------------|------------|-------------------|---------------||
|-6-6---------------|-6--9-8-8-6-|-6-6---------------|-9----8-(8)----||
|-6-6---------------|-4--7-6-6-4-|-6-6---------------|-7----6-(6)---o||
|-4-4---4-4-4---4-4-|------------|-4-4---4-4-4---4-4-|---------------||


   Pre-Bridge
              PM--------|             PM--------|
    S S S S E S S S S S S   S S S S E S S S S S S
||------------------------|-----------------------|
||o-----------------------|-----------------------|
||------------------------|-----------------------|
||------------------------|---------------4-------|
||o---------------7-6-5-6-|-----------------7-6-7-|
||--5p4h5p4---4-7---------|-5p4h5p4---4-7---------|


                          1.              2.
            PM--------|
  S S S S E S S S S S S   E E E E E E     E E E E Q
|-----------------------|--------------||------------|
|-----------------------|-------------o||------------|
|-----------------------|--------------||------------|
|---------------7-6-4-6-|-7-6-6-9-9-8--||-7-6-6-9-9--|
|-----------------------|-5-4-4-7-7-6-o||-5-4-4-7-7--|
|-5p4h5p4---4-7---------|--------------||------------|


 Bridge
                  7/8
  Gtr I
  Q   E  E  E  E   Q   E  E  E   +E      +E
|----12-10-12-10-|----12-10-13--(13)b15r(13)-|
|----------------|---------------------------|
|----------------|---------------------------|
|----------------|---------------------------|
|----------------|---------------------------|
|----------------|---------------------------|
|
| Gtr II
| q   Q     Q      q   Q     Q.
|----------------|---------------------------|
|----------------|---------------------------|
|----------------|---------------------------|
|----------------|-----------3---------------|
|-2--------------|-2---------1---------------|
|-0--------------|-0-------------------------|


 3/4                7/8
   E E  E  E  E  E   Q   E  E  E   +E      +E
|-12---12-10-12-10-|----12-10-13--(13)b15r(13)--|
|------------------|----------------------------|
|------------------|----------------------------|
|------------------|----------------------------|
|------------------|----------------------------|
|------------------|----------------------------|
|
|  q    Q     Q      q   Q     Q.
|------------------|----------------------------|
|------------------|----------------------------|
|------------------|----------------------------|
|------------------|-----------3----------------|
|--2---------------|-2---------1----------------|
|--0---------------|-0--------------------------|


 3/4                        7/8
   E E  E    E    E    E     Q   E    E    E   +E      +E
|-15---15---13---15---13---|----15---13---16--(16)b18r(16)-|
|--------------------------|-------------------------------|
|--------------------------|-------------------------------|
|--------------------------|-------------------------------|
|--------------------------|-------------------------------|
|--------------------------|-------------------------------|
|
|       PM---------------|       PM-----|
|  Q    S S  S S  S S  S S   Q   S S  S S  Q.
|--------------------------|-------------------------------|
|--------------------------|-------------------------------|
|--------------------------|-------------------------------|
|--------------------------|-------------------------------|
|--5-----------------------|-5-------------4---------------|
|--3----3----3-3--3----3-3-|-3---3----3-3--4---------------|


 3/4                        7/8
   E E  E    E    E    E     Q   E    E    E   +E      +E
|-15---15---13---15---13---|----15---13---16--(16)b18r(16)--|
|--------------------------|--------------------------------|
|--------------------------|--------------------------------|
|--------------------------|--------------------------------|
|--------------------------|--------------------------------|
|--------------------------|--------------------------------|
|
|       PM---------------|       PM-----|
|  Q    S S  S S  S S  S S   Q   S S  S S  Q.
|--------------------------|--------------------------------|
|--------------------------|--------------------------------|
|--------------------------|--------------------------------|
|--------------------------|--------------------------------|
|--5-----------------------|-5-------------4----------------|
|--3----3----3-3--3----3-3-|-3---3----3-3--4----------------|


   3/4
    Gtr II
                                        ~~~~~~~~~~~
    H.        H.        H.         Q.   E      +E  +E
||----------|---------|---------|-------------------------||
||o---------|---------|---------|------------------------o||
||----------|---------|---------|-------------------------||
||----------|---------|---------|-------------------------||
||o---------|---------|---------|-/5----7b7.5==(7)-(7)r--o||
||--5-------|-7-------|-8-------|-------------------------||


                      1.,2.               3.
   10/8              9/8                 4/4
    Q  Q  E Q  Q  E    Q  Q   Q  Q  E      Q  Q  Q   Q
||------------------|------------------||----------------|
||o-----------------|-----------------o||----------------|
||------------------|------------------||----------------|
||------------------|------------------||----------------|
||o-----------------|-/7--6-----------o||-/7--6--7--10\--|
||--0--2--3-0--2--3-|--------/8--7--3--||----------------|


 6/8         4/4           6/8         10/8
                                                     PM|
  Q.   Q.     H.      E E   Q.   Q.     Q.   Q.   Q  e e
|-----------|-------------|-----------|------------------|
|-----------|-------------|-----------|------------------|
|-----------|-------------|-----------|------------------|
|-----------|-------------|-----------|------------------|
|-----------|-------------|-2----5----|-4----0----2------|
|-2----4----|-5-------4-5-|-----------|--------------5-4-|


                          8/8             10/8
                 \5___|
  Q.   Q.   E E +E   +E    Q.   Q.   E E   Q  Q  E Q  Q  E
|------------------------|---------------|------------------|
|------------------------|---------------|------------------|
|------------------------|---------------|------------------|
|------------------------|---------------|------------------|
|------5-----------------|---------------|------------------|
|-2---------5-7-(7)--(7)-|-1----5----4-2-|-2--4--5-2--4--5--|


 3/4
  PM----------------------|     PM--------------------------------|
  E  e E  e E  e   E  e E  e  E E    e E  e E  e E    e E  e E  e E
|----------------|----------------|----------------|----------------|
|---10---10---10-|---10---10-10---|-10---10---10---|-10---10---10---|
|----9----9----9-|----9----9--9---|--9----9----9---|--9----9----9---|
|----7----7----7-|----7----7--7---|--7----7----7---|--7----7----7---|
|----------------|----------------|----------------|----------------|
|----------------|----------------|----------------|----------------|


   PM------------------------|
   e E  e E  e E    e E  e E  e  E
|----------------|-----------------|
|-10---10---10---|-10---10---10-10-|
|--9----9----9---|--9----9----9--9-|
|--7----7----7---|--7----7----7--7-|
|----------------|-----------------|
|----------------|-----------------|


 4/4                    9/8
  PM---------------|
  E  e E  e E  e E  e     E E E  E E E  E E E
|---------------------||----------------------|
|---10---10---10---10-||----------------------|
|----9----9----9----9-||-/5-4-2-/7-5-4-/9-7-5-|
|----7----7----7----7-||----------------------|
|---------------------||----------------------|
|---------------------||----------------------|


 5/8
  S S S S +E   E  E    S S S S +E   E  E
|-------------------||-------------------||
|-------------------||-------------------||
|-------------------||-------------------||
|-------------------||-9p8-9-9-(9)-11-12-||
|-8p7-8-8-(8)-10-11-||-------------------||
|-------------------||-------------------||


   S S  S  S  +E   E  E     S  S  S  S  +E   E  E
|-----------------------||------------------------|
|-----------------------||-12p11-12-12-(12)-14-15-|
|-10p9-10-10-(10)-12-13-||------------------------|
|-----------------------||------------------------|
|-----------------------||------------------------|
|-----------------------||------------------------|


 4/4
  T     T T     T T     T T     T  T     T  T     T     T
  |------6------| |------6------|  |------6-------|  |--3--|
  S  S  S S  S  S S  S  S S  S  S  S  S  S  S  S  S  S  S  S  +E
|-------------------------9h13-17----------15h19-23p19-23p19-(19)\-|
|---------8h12-16-----------------10h14-18-------------------------|
|-----------------8h12-16------------------------------------------|
|-7h11-15----------------------------------------------------------|
|------------------------------------------------------------------|
|------------------------------------------------------------------|


 10/8              9/8               10/8                  9/8
                                        PM--------------|
  Q  Q  E Q  Q  E    Q  Q   Q  Q  E   E e e e e E e e e e    Q  Q   Q  Q  E
|-----------------|-----------------|---------------------|-----------------|
|-----------------|-----------------|---------------------|-----------------|
|-----------------|-----------------|---------------------|-----------------|
|-----------------|-----------------|---------------------|-----------------|
|-----------------|-/7--6-----------|---2-5-2-5---2-5-2-5-|-/7--6-----------|
|-0--2--3-0--2--3-|--------/8--7--3-|---0-3-0-3---0-3-0-3-|--------/8--7--3-|


 10/8                    7/4
  PM----|    PM------|                           PM|
  e e e e E  e e e e e     Q  Q    Q  Q   Q  Q   e e
|----------------------||----------------------------||
|----------------------||----------------------------||
|----------------------||----------------------------||
|----------------------||----------------/9--8\--7-6-||
|-2-2-5-2-5\-2-2-5-2-5-||-/7--6--/10--9----------5-4-||
|-0-0-3-0-3\-0-0-3-0-3-||----------------------------||


 4/4
  W          +H     +E    E  +Q
|----------|-------------------------|
|----------|-------------------------|
|----------|-------------------------|
|-5--------|-(5)----(5)--------------|
|-3--------|-(3)----(3)-/10-(10)\----|
|----------|-------------------------|


                                                5/4
    q  E q  E q    Q  Q  Q   Q    q  E q  E q    Q  Q  Q   Q  Q
||---------------|--------------|--------------|-------------------||
||o--------------|--------------|--------------|------------------o||
||---------------|--------------|--------------|-------------------||
||-------3----5--|-7--8---------|------3----5--|-7--8---------6----||
||o-5----1----3--|-5--6--8\--3--|-5----1----3--|-5--6--8\--3--4---o||
||--3------------|-------6\--1--|-3------------|-------6\--1-------||


   4/4
                            |-3-|
    E E E E E E E E   E E E S S S E E E  E
||------------------|----------------------|
||o-----------------|----------------------|
||------------------|----------------------|
||------------------|----------------------|
||o-------1---1-3-1-|-5-3-6-5h6p5p3--------|
||--3-1-3---3-------|---------------6-8\-1-|


                   5/4
                          |-3-|
  E E E E E E E E   E E E S S S E E E  E Q
|-----------------|---------------------------||
|-----------------|--------------------------o||
|-----------------|---------------------------||
|-----------------|----------------------6----||
|-------1---1-3-1-|-5-3-6-5h6p5p3--------4---o||
|-3-1-3---3-------|---------------6-8\-1------||


   Keyboard Solo
   4/4
    Gtr V
    W                 W                      W
||------------------|----------------------|-----------------|
||o-----------------|----------------------|-----------------|
||------------------|----------------------|-----------------|
||------------------|----------------------|-----------------|
||o-----------------|----------------------|-----------------|
||------------------|----------------------|-----------------|
|
|   Gtr II
|                           |-3-|
|   E E E E E E E E   E E E S S S E E E  E   E E E E E E E E
||------------------|----------------------|-----------------|
||o-----------------|----------------------|-----------------|
||------------------|----------------------|-----------------|
||------------------|----------------------|-----------------|
||o-------4---4-6-4-|-8-6-9-8h9p8p6---6\---|-------4---4-6-4-|
||--6-4-6---6-------|---------------9----4-|-6-4-6---6-------|


  1.                          2.
 5/4                         5/4
  W                           H           H          Q
|--------------------------||-----------------------------|
|-------------------------o||-----------------------------|
|--------------------------||-----------------------------|
|--------------------------||-----------------------------|
|-------------------------o||-----------------------------|
|--------------------------||----------------------/12\---|
|
|       |-3-|                       |-3-|
| E E E S S S E E E  E Q      E E E S S S E E E  E   Q
|--------------------------||-----------------------------|
|-------------------------o||-----------------------------|
|--------------------------||-----------------------------|
|----------------------9---||------------------------9----|
|-8-6-9-8h9p8p6---6\---7--o||-8-6-9-8h9p8p6---6\-----7----|
|---------------9----4-----||---------------9----4--------|


 Guitar Solo
 4/4
   PM|  ~~~~~~~PM|  ~~PM|  ~~
   S S  E  +E  S S  E S S  Q
|------------------------------|
|------10-(10)-----10-----10---|
|-/7-7-10-(10)-7-7-10-7-7-10---|
|------------------------------|
|------------------------------|
|------------------------------|
|
|  E    E   E  E    E E    E E
|------------------------------|
|------------------------------|
|------------------------------|
|--------------3------3----5-3-|
|--5----3---5-------5----------|
|------------------------------|


         |--3--|
  E   E  S  S  S  S    S    S  S  S  S  S   S  S  S
|---/17-13-15-13--------------------------------------|
|----------------15---13------------------------------|
|-----------------------------14p13----13p=12----12p==|
|--------------------------15-------13--------12------|
|-----------------------------------------------------|
|-----------------------------------------------------|
|
|                 |--3---|
| E   E  E        S S    S  E     E     E      E
|-----------------------------------------------------|
|-----------------------------------------------------|
|-----------------------------------------------------|
|-7---5--8--------7h8p===7p=5-------------------------|
|---------------------------------8----10\-----3------|
|-----------------------------------------------------|


                                   5/4
                                                       |-3-|
   Q    S  S  S  S  E  E  E  S  S    S  S  S  S  S  S  S S S E e   Q    Q
|---------------------------------|-----------------------------------------|
|---------------------------------|-----------------------------------------|
|-10------------------10-12-10----|-----------------------------------------|
|------12p10-12p10-------------10-|-----------------------------------------|
|------------------12-------------|-12-10-------12-10-10p8s6-5-8-/10\-------|
|---------------------------------|-------13-10-------------------------4\--|
|
|                                                      |-3-|
|  E E  E     E     E  E  E  E       E     E     E     S S S E E   E  E Q
|---------------------------------|-----------------------------------------|
|---------------------------------|-----------------------------------------|
|---------------------------------|-------------------------------------8---|
|-------------3--------3--5--3----|--7-----5-----8-----7h8p7p5----------6---|
|--5-3--5-----------5-------------|----------------------------8--10\-3-----|
|---------------------------------|-----------------------------------------|


 4/4
   |-----6------|  |------6-------|  |------6-------|  |------6-------|
   S  S S  S  S S  S  S  S  S  S  S  S  S  S  S  S  S  S  S  S  S  S  S
|-----------------------------------------------------------------------|
|-----------------------------------------------------------------------|
|-----------------------------------------------------15-14-12----------|
|-----------------------------------15-13-12-------------------15-13-12-|
|-12-10-8---------15-13-12-------------------15-13-12-------------------|
|---------11-10-8----------15-13-11-------------------------------------|
|
|  E       E       E        E        E        E        E        E
|-----------------------------------------------------------------------|
|-----------------------------------------------------------------------|
|-----------------------------------------------------------------------|
|---------------------------3-----------------3--------5--------3-------|
|--5-------3-------5-----------------5----------------------------------|
|-----------------------------------------------------------------------|


   |------6-------|  |------6-------|  |------6-------|   |---3----|
   S  S  S  S  S  S  S  S  S  S  S  S  S  S  S  S  S  S   E   E    E
|-------------------------------------18-17-15-------20-/22----------|
|-------------------18-16-15-------------------18-16---------22---18-|
|-17-15-14-------------------17-15-14--------------------------------|
|----------17-15-13--------------------------------------------------|
|--------------------------------------------------------------------|
|--------------------------------------------------------------------|
|
|                             |--3--|
|  E        E        E        S  S  S  E        E         E     E
|--------------------------------------------------------------------|
|--------------------------------------------------------------------|
|--------------------------------------------------------------------|
|--7--------5--------8--------7h=8p=7p=5-----------------------------|
|-----------------------------------------------8--------10\----3----|
|--------------------------------------------------------------------|


   E      +S   +S       +Q      S  e    e    e    S
|-20b22==(20)r(20)b22==(20)r---18-17---16---15------|
|------------------------------------------------18-|
|---------------------------------------------------|
|---------------------------------------------------|
|---------------------------------------------------|
|---------------------------------------------------|
|
|  E       E             E   E  E    E    E    E
|---------------------------------------------------|
|---------------------------------------------------|
|---------------------------------------------------|
|----------------------------3-------3----5----3----|
|--5-------3-------------5------5-------------------|
|---------------------------------------------------|


         |--3--|
   S  S  S  S  S  S  S  S    S    S  S  S  S  E   E
|-15----16p15p13----13-------------------------------|
|----18----------15----15---13------15----15---------|
|--------------------------------14----13----12--10--|
|----------------------------------------------------|
|----------------------------------------------------|
|----------------------------------------------------|
|
|                       |--3---|
|  E     E        E     S S    S  E     E     E   E
|----------------------------------------------------|
|----------------------------------------------------|
|----------------------------------------------------|
|--7-----5--------8-----7h8p===7p=5------------------|
|---------------------------------------8----10\--3--|
|----------------------------------------------------|


 3/4                    5/4
                 ~~~~                                           ~~~~
                           |---3----|  |---3---|    |---3---|
   S   S  S  S  +H         E   E    E  E    E  E    E  E    E  +H
|----------------------|--------------------------/16-----/22-(22)-------|
|----------------------|------------------/15---------15\----------------|
|--------10------------|----------/13---------13\------------------------|
|-12--10----12-(12)----|-/12----------12\--------------------------------|
|----------------------|------12\----------------------------------------|
|----------------------|-------------------------------------------------|
|
|  H.                     +W                                        +Q
|----------------------|-------------------------------------------------|
|----------------------|-------------------------------------------------|
|----------------------|-------------------------------------------------|
|----------------------|-------------------------------------------------|
|--6-------------------|--(6)---------------------------------------(6)--|
|--4-------------------|--(4)---------------------------------------(4)--|


 Breakdown
 14/8                              16/8
  Gtr I
   +E   E H       H       H         W
|-(22)\---------------------------|----------------------------------|
|---------------------------------|----------------------------------|
|---------------------------------|----------------------------------|
|---------------------------------|----------------------------------|
|---------------------------------|----------------------------------|
|---------------------------------|----------------------------------|
|
| Gtr II
|   Q     H       H       H         W
|---------------------------------|----------------------------------|
|---------------------------------|----------------------------------|
|---------------------------------|----------------------------------|
|---7\----------------------------|----------------------------------|
|---5\----------------------------|----------------------------------|
|---------------------------------|----------------------------------|
|
| Gtr III
|   E   E E E E E E E E E E E E E   E E E E E E E E E E E E E E E E
|---------------------------------|----------------------------------|
|---------3-----3-----3-----3---3-|-----3-----3-----3-----3---3---3--|
|-------2-----2-----2-----2-------|---2-----2-----2-----2------------|
|---0-----------------------------|-0-----3-----5-----2-----3--------|
|-----------1-----0---------------|-----------------------------3----|
|-----------------------1-----3---|----------------------------------|


 14/8                          16/8
  Gtr III
  E E E E E E E E E E E E E E   E E E E E E E E E E E E E E E E
|-----------------------------|----------------------------------|
|-----3-----3-----3-----3---3-|-----3-----3-----3-----3---3---3--|
|---2-----2-----2-----2-------|---2-----2-----2-----2------------|
|-0---------------------------|-0-----3-----5-----2-----3--------|
|-------1-----0---------------|-----------------------------3----|
|-------------------1-----3---|----------------------------------|


   14/8                            16/8
    E E E  E E E E E E  E E E E E   E  E E E E E E  E E E E E E  E E E    7x
||--------------------------------|---------------------------------------||
||o-----3------3-----3------3---3-|------3-----3------3-----3----3---3---o||
||----2------2-----2------2-------|----2-----2------2-----2---------------||
||--0-----------------------------|-0------3-----5------2-----3-----------||
||o--------1-----0----------------|--------------------------------3-----o||
||----------------------1-----3---|---------------------------------------||
|
|   Gtr IV
|   PM---------------------------------------------------------------|
|   E E E  E E E E E E  E E E E E   E  E E E E E E  E E E E E E  E E E    7x
||--------------------------------|---------------------------------------||
||o-------10-----------10---------|---10-----------10-----------10-------o||
||--7---7----7---7---7----7---7---|-7----7---7---7----7---7---7----7------||
||----7--------7---7--------7---7-|--------7---7--------7---7--------7----||
||o-------------------------------|--------------------------------------o||
||--------------------------------|---------------------------------------||


   4/4
    Gtr II
    Q  E E +Q   Q    +W           Q  E E +Q   Q    +H     Q  Q
||-----------------|------------|----------------|----------------||
||o----------------|------------|----------------|---------------o||
||-----------------|------------|----------------|----------------||
||--7--------------|------------|-7--------------|--------3--5----||
||o-5----3-(3)--5--|-(5)--------|-5----3-(3)--5--|-(5)----1--3---o||
||-------1-(1)--3--|-(3)--------|------1-(1)--3--|-(3)------------||


 Catch
 3/4
  Gtr I
  Q    E  E  Q    Q   E  E  E  E   Q   E  E  E  E    E   E  E  E  E   E
|---------------|----------------|----12-11-12----|---------------------|
|-----12-10-12--|----13-12-12-10-|-------------12-|-12--10-10-----------|
|---------------|----------------|----------------|-----------12-12--11-|
|---------------|----------------|----------------|---------------------|
|---------------|----------------|----------------|---------------------|
|---------------|----------------|----------------|---------------------|
|
| Gtr II
| E e  Q     Q    Q   Q     Q      Q   Q     Q       Q.        E +Q
|---------------|----------------|----------------|---------------------|
|---------------|----------------|----------------|---------------------|
|---------------|----------------|----------------|---------------------|
|---------------|-2--------------|----------------|--4---------7-(7)----|
|-2-2-----------|-0--------------|-2--------------|--2---------5-(5)----|
|-0-0-----------|----------------|-0--------------|---------------------|


  E E  E  E  Q    Q   E  E  E  E   Q   E  E  E  E    E   E  E  E  E   E
|---------------|----------------|----12-11-12----|-12--11-11-12-14--15-|
|-----12-10-12--|----13-12-12-10-|-------------12-|---------------------|
|-9-------------|----------------|----------------|---------------------|
|---------------|----------------|----------------|---------------------|
|---------------|----------------|----------------|---------------------|
|---------------|----------------|----------------|---------------------|
|
| E e  Q     Q    Q   Q     Q      Q   Q     Q       Q.        E +Q
|---------------|----------------|----------------|---------------------|
|---------------|----------------|----------------|---------------------|
|---------------|----------------|----------------|---------------------|
|---------------|-2--------------|----------------|--5---------4-(4)----|
|-2-2-----------|-0--------------|-2--------------|--3---------2-(2)----|
|-0-0-----------|----------------|-0--------------|---------------------|


   E E  E  E  Q    Q   E  E  E  E   Q   E  E  E  E    E   E  E  E  E   E
|-12-------------|----------------|----12-11-12----|---------------------|
|------12-10-12--|----13-12-12-10-|-------------12-|-12--10-10-----------|
|----------------|----------------|----------------|-----------12-12--11-|
|----------------|----------------|----------------|---------------------|
|----------------|----------------|----------------|---------------------|
|----------------|----------------|----------------|---------------------|
|
|  E e  Q     Q    Q   Q     Q      Q   Q     Q       Q.        E +Q
|----------------|----------------|----------------|---------------------|
|----------------|----------------|----------------|---------------------|
|----------------|----------------|----------------|---------------------|
|----------------|-2--------------|----------------|--4---------7-(7)----|
|--2-2-----------|-0--------------|-2--------------|--2---------5-(5)----|
|--0-0-----------|----------------|-0--------------|---------------------|


  E E  E  E  Q    Q   E  E  E  E   Q   E  E  E  E    E   E  E  E  E   E
|---------------|----------------|----12-11-12----|-12--11-11-12-14--15-|
|-----12-10-12--|----13-12-12-10-|-------------12-|---------------------|
|-9-------------|----------------|----------------|---------------------|
|---------------|----------------|----------------|---------------------|
|---------------|----------------|----------------|---------------------|
|---------------|----------------|----------------|---------------------|
|
| E e  Q     Q    Q   Q     Q      Q   Q     Q       Q.        E +Q
|---------------|----------------|----------------|---------------------|
|---------------|----------------|----------------|---------------------|
|---------------|----------------|----------------|---------------------|
|---------------|-2--------------|----------------|--5---------4-(4)----|
|-2-2-----------|-0--------------|-2--------------|--3---------2-(2)----|
|-0-0-----------|----------------|-0--------------|---------------------|


 Chorus
   Q   H               W            W                   W
|-16-----------------|------------|-------------------|---------------|
|--------------------|------------|-------------------|---------------|
|--------------------|------------|-------------------|---------------|
|--------------------|------------|-------------------|---------------|
|--------------------|------------|-------------------|---------------|
|--------------------|------------|-------------------|---------------|
|
| Gtr II
|        PM--------|                      PM--------|      PM
|  E e E S S S S S S   Q  E E E E   E e E S S S S S S   Q  s S E +Q
|--------------------|------------|-------------------|---------------|
|--------------------|------------|-------------------|---------------|
|--------------------|------------|-------------------|---------------|
|--6-6---------------|-6--9-8-8-6-|-6-6---------------|--------4-(4)--|
|--6-6---------------|-4--7-6-6-4-|-6-6---------------|-6------4-(4)--|
|--4-4---4-4-4---4-4-|------------|-4-4---4-4-4---4-4-|-6--4----------|


        PM--------|                      PM--------|
  E e E S S S S S S   Q  E E E E   E e E S S S S S S   Q.   E +Q
|-------------------|------------|-------------------|--------------|
|-------------------|------------|-------------------|--------------|
|-------------------|------------|-------------------|--------------|
|-6-6---------------|-6--9-8-8-6-|-6-6---------------|-9----8-(8)---|
|-6-6---------------|-4--7-6-6-4-|-6-6---------------|-7----6-(6)---|
|-4-4---4-4-4---4-4-|------------|-4-4---4-4-4---4-4-|--------------|


          PM--------|
    E e E S S S S S S   Q  E E E E
||--------------------|------------|
||o-------------------|------------|
||--------------------|------------|
||--6-6---------------|-6--9-8-8-6-|
||o-6-6---------------|-4--7-6-6-4-|
||--4-4---4-4-4---4-4-|------------|


                     1.                 2.
        PM--------|      PM
  E e E S S S S S S   Q  s S E +Q       Q.   E +Q
|-------------------|----------------||--------------|
|-------------------|---------------o||--------------|
|-------------------|----------------||--------------|
|-6-6---------------|--------4-(4)---||-9----8-(8)---|
|-6-6---------------|-6------4-(4)--o||-7----6-(6)---|
|-4-4---4-4-4---4-4-|-6--4-----------||--------------|


 Out-Chorus
  Gtr I
  Q    E  E    Q         Q   E  E  E  E
|----------------------|----------------|
|-----13-11---13-------|----14-13-13-11-|
|----------------------|----------------|
|----------------------|----------------|
|----------------------|----------------|
|----------------------|----------------|
|
| Gtr II
|         PM---------|
| E e  E  S S  S S S S   Q   E  E  E  E
|----------------------|----------------|
|----------------------|----------------|
|----------------------|----------------|
|-3-3------------------|-3---6--5--5--3-|
|-3-3------------------|-1---4--3--3--1-|
|-1-1-----1-1--1---1-1-|----------------|


  Q    E  E    E    E      E  E  E    E  E   E
|-----13-12---13--------|-----------------------|
|------------------13---|-13-11-11--------------|
|-----------------------|------------13-13--12--|
|-----------------------|-----------------------|
|-----------------------|-----------------------|
|-----------------------|-----------------------|
|
|         PM----------|          PM
| E e  E  S S  S S  S S    Q     s S  E +Q
|-----------------------|-----------------------|
|-----------------------|-----------------------|
|-----------------------|-----------------------|
|-3-3-------------------|--5----------8-(8)-----|
|-3-3-------------------|--3----------6-(6)-----|
|-1-1-----1-1--1----1-1-|--------1--------------|


   E E  E  E    Q         Q   E  E  E  E
|-----------------------|----------------|
|------13-11---13-------|----14-13-13-11-|
|-10--------------------|----------------|
|-----------------------|----------------|
|-----------------------|----------------|
|-----------------------|----------------|
|
|          PM---------|
|  E e  E  S S  S S S S   Q   E  E  E  E
|-----------------------|----------------|
|-----------------------|----------------|
|-----------------------|----------------|
|--3-3------------------|-3---6--5--5--3-|
|--3-3------------------|-1---4--3--3--1-|
|--1-1-----1-1--1---1-1-|----------------|


  Q    E  E    E    E      E   E  E  E  E   E
|-----13-12---13--------|-13--12-12-13-15--16-|
|------------------13---|---------------------|
|-----------------------|---------------------|
|-----------------------|---------------------|
|-----------------------|---------------------|
|-----------------------|---------------------|
|
|         PM----------|
| E e  E  S S  S S  S S    Q.        E +Q
|-----------------------|---------------------|
|-----------------------|---------------------|
|-----------------------|---------------------|
|-3-3-------------------|--6---------5-(5)----|
|-3-3-------------------|--4---------3-(3)----|
|-1-1-----1-1--1----1-1-|---------------------|


   E E  E  E    Q         Q   E  E  E  E
|-13--------------------|----------------|
|------13-11---13-------|----14-13-13-11-|
|-----------------------|----------------|
|-----------------------|----------------|
|-----------------------|----------------|
|-----------------------|----------------|
|
|          PM---------|
|  E e  E  S S  S S S S   Q   E  E  E  E
|-----------------------|----------------|
|-----------------------|----------------|
|-----------------------|----------------|
|--3-3------------------|-3---6--5--5--3-|
|--3-3------------------|-1---4--3--3--1-|
|--1-1-----1-1--1---1-1-|----------------|


  Q    E  E    E    E      E  E  E    E  E   E
|-----13-12---13--------|-----------------------|
|------------------13---|-13-11-11--------------|
|-----------------------|------------13-13--12--|
|-----------------------|-----------------------|
|-----------------------|-----------------------|
|-----------------------|-----------------------|
|
|         PM----------|          PM
| E e  E  S S  S S  S S    Q     s S  E +Q
|-----------------------|-----------------------|
|-----------------------|-----------------------|
|-----------------------|-----------------------|
|-3-3-------------------|--5----------8-(8)-----|
|-3-3-------------------|--3----------6-(6)-----|
|-1-1-----1-1--1----1-1-|--------1--------------|


   E E  E  E    Q         Q   E  E  E  E
|-----------------------|----------------|
|------13-11---13-------|----14-13-13-11-|
|-10--------------------|----------------|
|-----------------------|----------------|
|-----------------------|----------------|
|-----------------------|----------------|
|
|          PM---------|
|  E e  E  S S  S S S S   Q   E  E  E  E
|-----------------------|----------------|
|-----------------------|----------------|
|-----------------------|----------------|
|--3-3------------------|-3---6--5--5--3-|
|--3-3------------------|-1---4--3--3--1-|
|--1-1-----1-1--1---1-1-|----------------|


                        Q=143
  Q    E  E    E    E      H.         H.
|-----13-12---13--------|----------|--------|
|------------------13---|-14-------|-13-----|
|-----------------------|----------|--------|
|-----------------------|----------|--------|
|-----------------------|----------|--------|
|-----------------------|----------|--------|
|
|         PM----------|
| E e  E  S S  S S  S S    H.         H.
|-----------------------|----------|--------|
|-----------------------|----------|--------|
|-----------------------|----------|--------|
|-3-3-------------------|--6-------|--5-----|
|-3-3-------------------|--4-------|--3-----|
|-1-1-----1-1--1----1-1-|----------|--------|


 Outro
  Q=140
 4/4
   W            +W               W           W              W
|-13---------|-(13)------------|-----------|--------------|-----------|
|------------|-----------------|-----------|--------------|-----------|
|------------|-----------------|-----------|--------------|-----------|
|------------|-----------------|-----------|--------------|-----------|
|------------|-----------------|-----------|--------------|-----------|
|------------|-----------------|-----------|--------------|-----------|
|
|                            PM                         PM
|  H    H        H     +Q.   e   H    H      H    +Q.   e   H    H
|------------|-----------------|-----------|--------------|-----------|
|------------|-----------------|-----------|--------------|-----------|
|------------|-----------------|-----------|--------------|-----------|
|-------3----|---3-----(3)-----|------3----|-4----(4)-----|------3----|
|--3----3----|---1-----(1)---3-|-3----3----|-2----(2)---3-|-3----3----|
|--1---------|---------------0-|-1---------|-2----(2)---0-|-1---------|


             PM
  H    +Q.   e   H    H      W          +H      H
|--------------|-----------|----------|---------------|
|--------------|-----------|----------|---------------|
|--------------|-----------|----------|---------------|
|-3----(3)-----|------3----|-4--------|-(4)-----------|
|-1----(1)---3-|-3----3----|-2--------|-(2)-----------|
|------------0-|-1---------|-2--------|-(2)----/8\----|


  Q=118
 15/8                                       14/8
  W                 +H..                     +W                +H.
|------------------------------------------|----------------------------------|
|------------------------------------------|----------------------------------|
|------------------------------------------|----------------------------------|
|------------------------------------------|----------------------------------|
|-3-----------------(3)--------------------|-(3)---------------(3)------------|
|-1-----------------(1)--------------------|-(1)---------------(1)------------|
|
| Gtr III
| <
| E E E E E E  E  E  E    E  E  E  E  E  E    E  E E E E E E E  E  E E E E E
|-4---4-6---6-11-----8------10-------------|--4----4-6---6------4----6---8----|
|---6-6---6-6---------------------11-13----|-----6-6---6-6-8-6-----6---6---6--|
|----------------10------10----10-------10-|----------------------------------|
|------------------------------------------|----------------------------------|
|-3---3-6---6-11-----8------10-------------|--3----3-6---6------3----6---8----|
|---------------------------------11-13----|---------------6------------------|


   15/8                                    14/8
    Gtr III
    E E E E E E  E  E E  E  E  E  E  E  E   E E E E E E E E E E E E E E  4x
||--4---4-6---6-11----8----10-------------|-4---4-6---6-----4---6---8----||
||o---6-6---6-6------------------11-13----|---6-6---6-6-8-6---6---6---6-o||
||-----------------10---10----10-------10-|------------------------------||
||----------------------------------------|------------------------------||
||o-3---3-6---6-11----8----10-------------|-3---3-6---6-----3---6---8---o||
||-------------------------------11-13----|-------------6----------------||



Duration Legend
---------------
W - whole; H - half; Q - quarter; E - 8th; S - 16th; T - 32nd; X - 64th; a - acciaccatura
+ - note tied to previous; . - note dotted; .. - note double dotted
Uncapitalized letters represent notes that are staccato (1/2 duration)
Irregular groupings are notated above the duration line
Duration letters will always appear directly above the note/fret number it represents the
duration for.  Duration letters with no fret number below them represent rests.  Multi-
bar rests are notated in the form Wxn, where n is the number of bars to rest for.  Low
melody durations appear below the staff

Tablature Legend
----------------
 h   - hammer-on
 p   - pull-off
 b   - bend
 pb  - pre-bend
 r   - bend release (if no number after the r, then release immediately)
 /\  - slide into or out of (from/to "nowhere")
 s   - legato slide
 S   - shift slide
 - natural harmonic
[n]  - artificial harmonic
n(n) - tapped harmonic
 ~   - vibrato
 tr  - trill
 T   - tap
 TP  - trem. picking
 PM  - palm muting
\n/  - tremolo bar dip; n = amount to dip
 \n  - tremolo bar down
 n/  - tremolo bar up
/n\  - tremolo bar inverted dip
 =   - hold bend; also acts as connecting device for hammers/pulls
 <> - volume swell (louder/softer)
 x   - on rhythm slash represents muted slash
 o   - on rhythm slash represents single note slash

Misc Legend
-----------
 |  - bar
||  - double bar
||o - repeat start
o|| - repeat end
*|  - double bar (ending)
 :  - bar (freetime)
 $  - Segno
 &  - Coda
Tempo markers -  = BPM(8/16=s8/s16), where s8 = swing 8ths, s16 = swing 16ths


            
            
Suggest correction
Creating personal tab
Creating personal tab
You can edit any tab online and save it as your Personal.

You can edit, replace or remove any tab part or add personal notes – all changes will be seen only by you.

Personal tabs can be accessed anytime from any device, even offline.
Learn more »
Give kudos to tab author, rate the tab!
1 2 3 4 5
comments
print report bad tab
guest
You may want to rate the tab now too:
select rating
Wanna post a correction for this tab? Suggest correction