Oops, an error
Loading. Please wait.

Sea Of Lies bass

version 2
version 2

Whole song

Interactive

1,446 views 3 this week
1 commentread comment
1 2 3 4 5
1 last vote to show rating
add to favorites
×
Save as Personal and add changes to this tab that will be seen only by you. Learn more ›
×
You can save this tab as Personal to edit and correct it or add notes. All changes will be seen only by you. Learn more »
launch autoscroll
font size
0
reset
guitar tuner
backing track
0:00
0:00
edit
Autoscroll
slow
fast
+/-
esc
set tempo
stop
#----------------------------------PLEASE NOTE---------------------------------#
#This file is the author's own work and represents their interpretation of the #
#song. You may only use this file for private study, scholarship, or research. #
#------------------------------------------------------------------------------#

SEA OF LIES (Bassline)
As recorded by Symphony X
(From the 1997 Album THE DIVINE WINGS OF TRAGEDY)

Transcribed by Luca Abete
	

Music by Symphony X

Gtr I (A D G C F) - 'Bass'
Gtr II (D G C F A D) - 'Keyboard Lead'
Gtr III (D G C F A D) - 'Keyboard'

 Intro
  Q=140    H=H              Q=152
 4/4           2/4         4/4
  Gtr I
   H.      Q      H          E E S S E S S E E S S
|-------------:---------||-------------------------|
|-------------:---------||o------7p5---8p5-----7p5-|
|-------------:---------||---0-0-----0-----0-0-----|
|-------------:---------||o------------------------|
|-------------:---------||-------------------------|
|
| Gtr III
|  <
|  W             +H          W
|-------------:---------||-------------------------|
|-10----------:-(10)----||o-10---------------------|
|-------------:---------||-------------------------|
|--7----------:--(7)----||---7---------------------|
|-------------:---------||o------------------------|
|-------------:---------||-------------------------|


    S  S E S S E s s s s s s s s
|----------------3-7-6-7---------|
|---7p=5---8p5-----------5-8-7-8-|
|--------0-----0-----------------|
|--------------------------------|
|--------------------------------|
|
|  +W
|--------------------------------|
|-(10)---------------------------|
|--------------------------------|
|--(7)---------------------------|
|--------------------------------|
|--------------------------------|


    E  E S S E S S E E S S     S  S E S S E  Q   Q
|--------------------------|---------------------------||
|--------7p5---8p5-----7p5-|---7p=5---5p3----1---1----o||
|---0--0-----0-----0-0-----|--------0-----0------------||
|--------------------------|--------------------------o||
|--------------------------|---------------------------||
|
|  +W                         +H             Q   Q
|--------------------------|----------------11--11-----||
|-(10)---------------------|-(10)-----------11--11----o||
|--------------------------|-----------------8---8-----||
|--(7)---------------------|--(7)------------8---8-----||
|--------------------------|--------------------------o||
|--------------------------|---------------------------||


     S S S S S S S S S S S S S S S S     S  S S S S S S S S S S S  S S S S
||-----------------------------------|--------------------3-7-6-7-----------|
||o----------7p5-----8p5---------7p5-|---7p=5-----8p5--------------5-8-7-8--|
||---0-0-0-0-----0-0-----0-0-0-0-----|--------0-0-----0-0-------------------|
||o----------------------------------|--------------------------------------|
||-----------------------------------|--------------------------------------|
|
|    W                                  +H                Q        Q
||-----------------------------------|--------------------------------------|
||o-10-------------------------------|-(10)---------------8-------11--------|
||-----------------------------------|--------------------------------------|
||---7-------------------------------|--(7)---------------5--------8--------|
||o----------------------------------|--------------------------------------|
||-----------------------------------|--------------------------------------|


 4/4
   S S S S S S S S S S S S S S S S
|----------------------------------|
|----------7p5-----8p5---------7p5-|
|--0-0-0-0-----0-0-----0-0-0-0-----|
|----------------------------------|
|----------------------------------|
|
|  W
|----------------------------------|
|-10-------------------------------|
|----------------------------------|
|--7-------------------------------|
|----------------------------------|
|----------------------------------|


 1.                         2.
    S  S E S S E  Q   Q       Q   Q  Q   Q
|-------------------------||-----------------|
|---7p=5---5p3----1---1--o||-----------------|
|--------0-----0----------||-------------7---|
|------------------------o||--6---5--3-------|
|-------------------------||-----------------|
|
|  +H             Q   Q       Q   Q  Q   Q
|----------------11--11---||------------12---|
|-(10)-----------11--11--o||-11--10--8-------|
|-----------------8---8---||-------------9---|
|--(7)------------8---8---||--8---7--5-------|
|------------------------o||-----------------|
|-------------------------||-----------------|


                              T                T
   Q   Q   Q   Q     S S S S  S S S S S S S S  S S S S
|-----------------|------------------------------------|
|----------5---7--|-------------------5h8p7h8-12p8p7h8-|
|--4---5----------|--5h8p7h8-12p8p7h8------------------|
|-----------------|------------------------------------|
|-----------------|------------------------------------|
|
|  Q   Q   Q   Q     W
|---------15--17--|------------------------------------|
|-14--15----------|-15---------------------------------|
|---------12--14--|------------------------------------|
|-11--12----------|-12---------------------------------|
|-----------------|------------------------------------|
|-----------------|------------------------------------|


              T        T
    S  S S S  S S S S  S S S S Q
|---6h=9p7h9-12p9p7h9-14p9p7p6h7--|
|---------------------------------|
|---------------------------------|
|---------------------------------|
|---------------------------------|
|
|  +W
|---------------------------------|
|-(15)----------------------------|
|---------------------------------|
|-(12)----------------------------|
|---------------------------------|
|---------------------------------|


   T     T          T     T         T    T       T   T
   |------6------|  |-----6------|  |----6-----| |---6---|
   S  S  S  S  S S  S  S  S  S S S  S S  S S S S S S S S E
|-14p12-14p12p10s9-12p10-12p10p9s7-10p9-10p9p7s6-9p7-9p7s6\--|
|------------------------------------------------------------|
|------------------------------------------------------------|
|------------------------------------------------------------|
|------------------------------------------------------------|
|
|  W
|------------------------------------------------------------|
|------------------------------------------------------------|
|------------------------------------------------------------|
|------------------------------------------------------------|
|------------------------------------------------------------|
|------------------------------------------------------------|


   Verse 1
     E E E  E E E E  E     E  E E E S S S S S S S S
||---------------------|----------------------------|
||o--------------------|----------------------------|
||---------------------|----------------------------|
||o--2-2-0-/3---2-0-/3-|------2---2-0-2-3---0-2-3---|
||---------------------|----------------------------|
|
|    W                    +W
||---9-----------------|--(9)-----------------------|
||o-10-----------------|-(10)-----------------------|
||--11-----------------|-(11)-----------------------|
||--11-----------------|-(11)-----------------------|
||o--9-----------------|--(9)-----------------------|
||---------------------|----------------------------|


   E E E  E E E E  E     E  E E E E E E E
|--------------------|--------------------|
|--------------------|--------------------|
|--------------------|--------------------|
|----2-0-/3---2-0-/3-|------2---2---0---0-|
|--------------------|--------------------|
|
|  W                    +W
|--9-----------------|--(9)---------------|
|--9-----------------|--(9)---------------|
|--9-----------------|--(9)---------------|
|-11-----------------|-(11)---------------|
|--9-----------------|--(9)---------------|
|--------------------|--------------------|


  E E E  E E E E  E    E  E E E S S S S S S S S
|-------------------|---------------------------|
|-------------------|---------------------------|
|-------------------|---------------------------|
|-2-2-0-/3---2-0-/3-|-----2---2-0-2-3---0-2-3---|
|-------------------|---------------------------|
|
| W                   +W
|-7-----------------|-(7)-----------------------|
|-7-----------------|-(7)-----------------------|
|-7-----------------|-(7)-----------------------|
|-9-----------------|-(9)-----------------------|
|-9-----------------|-(9)-----------------------|
|-------------------|---------------------------|


 1.
   E E E  E E E E  E     E  E E E E E Q
|--------------------|---------------------||
|--------------------|--------------------o||
|--------------------|---------------------||
|----2-0-/3---2-0-/3-|------2---2---0-0---o||
|--------------------|---------------------||
|
|  W                    +W
|--9-----------------|--(9)----------------||
|-10-----------------|-(10)---------------o||
|-11-----------------|-(11)----------------||
|-11-----------------|-(11)----------------||
|--9-----------------|--(9)---------------o||
|--------------------|---------------------||


  2.
   E E E  E E E E E     S  S S S S S S S S S S S Q
|-------------------|-------------------------------|
|-------------------|-------------------------------|
|-------------------|------0-2-4-2-0---0-2-4-2-0-4--|
|----2-0-/3---2-0-2-|---2------------2--------------|
|-------------------|-------------------------------|
|
|  W                   +W
|--9----------------|--(9)--------------------------|
|-10----------------|-(10)--------------------------|
|-11----------------|-(11)--------------------------|
|-11----------------|-(11)--------------------------|
|--9----------------|--(9)--------------------------|
|-------------------|-------------------------------|


 Guitar Solo 1
 5/4
  S S S S S S S S S S S S S S S S S S S S
|-----------------------------------------|
|---------8-5-----7-5---------------------|
|-5-5-5-5-----5-5-----5-5-5-5-5-5-5-5-5-5-|
|-----------------------------------------|
|-----------------------------------------|


  S S S S S S S S S S S S S S S S S S S S
|------------------------------------------|
|---------8-5-----7-5----------------------|
|-5-5-5-5-----5-5-----5-5-5-5-5-5-5-5-5-5--|
|------------------------------------------|
|------------------------------------------|


   S  S  S  S  S  S  S  S  S  S  S  S  S  S  S  S  S  S  S  S
|-------------------------------------------------------------|
|-------------11--8-------10--8-------------------------------|
|--8--8--8--8--------8--8--------8--8--8--8--8--8--8--8--8--8-|
|-------------------------------------------------------------|
|-------------------------------------------------------------|
|
| Gtr II
|  S  S  S  S  S  S  S  S  S  S  S  S  S  S  S  S  S  S  S  S
|-------------------16-20-16----------------16-18-20-16-18-20-|
|----------------------------------------18-------------------|
|-17-22-17----17-22----------22-17----17----------------------|
|----------18----------------------18-------------------------|
|-------------------------------------------------------------|
|-------------------------------------------------------------|


    S  S  S  S   S  S  S  S  S  S  S  S  S  S  S  S  S  S  S  S
|----------------------------------------------------------------|
|---------------11--8-------10--8--------------------------------|
|---8--8--8--8---------8--8--------8--8--8--8--8--8--8--8--8--8--|
|----------------------------------------------------------------|
|----------------------------------------------------------------|
|
|   S  S  S  S   S  S  S  S  S  S  S  S  S  S  S  S  S  S  S  S
|-/21-18-20-21-/23-21-20-----------------------------------------|
|------------------------23-21-20-------14-13-11-----------------|
|---------------------------------22-20----------13-12-10-12-13--|
|----------------------------------------------------------------|
|----------------------------------------------------------------|
|----------------------------------------------------------------|


 Pre-Chorus
 7/8
   H      Q.      Q.    E E E E    H       E  E E
|--------------|----------------|-----------------||
|--------------|----------3-1---|-------------8---||
|--1------3----|--------------3-|--4-------6----6-||
|--------------|--1-------------|-----------------||
|--------------|----------------|-----------------||
|
|  ~~~~~~~~~~
|  H     +Q.      H..              H..
|--------------|----------------|-----------------||
|--------------|----------------|-----------------||
|-10----(10)---|----------------|-----------------||
|--------------|----------------|-----------------||
|--------------|----------------|-----------------||
|--------------|----------------|-----------------||
|
| Gtr III
|  H      Q.      H..              H       Q.
|--6------8----|--8-------------|-13------11------||
|--6------8----|--9-------------|-14------11------||
|--6------8----|-10-------------|-13------12------||
|--8-----10----|-10-------------|-15------13------||
|--------------|--8-------------|-----------------||
|--------------|----------------|-----------------||


                   3/4
   Q    E E E E E    Q   E E +E  E   Q   E E +Q
|-----------------|----------------|----------------|
|-------------6---|--------4-(4)---|-------2-(2)----|
|-----------6---6-|----------------|----------------|
|--4----4-4-------|--2---2-------x-|-0---0----------|
|-----------------|----------------|----------------|
|
|  H..               H.              H.
|-----------------|----------------|----------------|
|-----------------|----------------|----------------|
|-----------------|----------------|----------------|
|-----------------|----------------|----------------|
|-----------------|----------------|----------------|
|-----------------|----------------|----------------|
|
|  H..               H.              H.
|-11--------------|--9-------------|-7--------------|
|-12--------------|-11-------------|-9--------------|
|-13--------------|-11-------------|-9--------------|
|-13--------------|-11-------------|-9--------------|
|-----------------|----------------|----------------|
|-----------------|----------------|----------------|


   Chorus
   4/4
     S S S S S S S S S S S S S S S S     S  S S S S S S S S S S S  S S S S
||-----------------------------------|--------------------3-7-6-7----------|
||o----------7p5-----8p5---------7p5-|---7p=5-----8p5--------------5-8-7-8-|
||---0-0-0-0-----0-0-----0-0-0-0-----|--------0-0-----0-0------------------|
||o----------------------------------|-------------------------------------|
||-----------------------------------|-------------------------------------|
|
|   Gtr III
|    W                                  +H                Q        Q
||-----------------------------------|-------------------------------------|
||o-10-------------------------------|-(10)---------------8-------11-------|
||-----------------------------------|-------------------------------------|
||---7-------------------------------|--(7)---------------5--------8-------|
||o----------------------------------|-------------------------------------|
||-----------------------------------|-------------------------------------|


   S S S S S S S S S S S S S S S S
|----------------------------------|
|----------7p5-----8p5---------7p5-|
|--0-0-0-0-----0-0-----0-0-0-0-----|
|----------------------------------|
|----------------------------------|
|
|  W
|----------------------------------|
|-10-------------------------------|
|----------------------------------|
|--7-------------------------------|
|----------------------------------|
|----------------------------------|


                                5/4
    S  S S S S S S S  Q   Q      S S S S  Q   Q  H
|-----------------------------||----------------------|
|---7p=5-----5p3------1---1--o||----------1---1-------|
|--------0-0-----0-0----------||-0-0-0-0--------------|
|----------------------------o||----------------------|
|-----------------------------||----------------------|
|
|  +H                 Q   Q      Q        Q   Q  H
|--------------------15--15---||---------15--15-------|
|-(10)---------------16--16--o||---------16--16-------|
|--------------------15--15---||---------15--15-------|
|--(7)---------------17--17---||---------17--17-------|
|--------------------18--18--o||---------18--18-------|
|--------------------18--18---||---------18--18-------|


 Verse 2
 4/4
   E E E E E E E E     E  E E E S S S S S S S S
|------------------|----------------------------|
|------------------|----------------------------|
|------------------|----------------------------|
|--2-2-0-2---2-0-2-|------2---2-0-2-2---0-2-2---|
|------------------|----------------------------|
|
|  W                  +W
|--9---------------|--(9)-----------------------|
|-10---------------|-(10)-----------------------|
|-11---------------|-(11)-----------------------|
|-11---------------|-(11)-----------------------|
|--9---------------|--(9)-----------------------|
|------------------|----------------------------|


   E E E E E E E E     E  E E E S S S S Q
|------------------|------------------------|
|------------------|------------------------|
|------------------|------------------------|
|----2-0-2---2-0-2-|------2---2-0-2-2---0---|
|------------------|------------------------|
|
|  W                  +W
|--9---------------|--(9)-------------------|
|--9---------------|--(9)-------------------|
|--9---------------|--(9)-------------------|
|-11---------------|-(11)-------------------|
|--9---------------|--(9)-------------------|
|------------------|------------------------|


  E E E E E E E E    E  E E E S S S S S S S S
|-----------------|---------------------------|
|-----------------|---------------------------|
|-----------------|---------------------------|
|-2-2-0-2---2-0-2-|-----2---2-0-2-2---0-2-2---|
|-----------------|---------------------------|
|
| W                 +W
|-7---------------|-(7)-----------------------|
|-7---------------|-(7)-----------------------|
|-7---------------|-(7)-----------------------|
|-9---------------|-(9)-----------------------|
|-9---------------|-(9)-----------------------|
|-----------------|---------------------------|


   E E E E E E E E     E   a  E E E   E E  Q
|------------------|--------------------------|
|------------------|------------7-------9-----|
|------------------|---4--(4)s9---9-/11---11--|
|----2-0-2---2-0-2-|--------------------------|
|------------------|--------------------------|
|
|  W                  +W
|--9---------------|--(9)---------------------|
|-10---------------|-(10)---------------------|
|-11---------------|-(11)---------------------|
|-11---------------|-(11)---------------------|
|--9---------------|--(9)---------------------|
|------------------|--------------------------|


   E E E E E E E E     E  E E E S S S S S S S S
|------------------|----------------------------|
|------------------|----------------------------|
|------------------|----------------------------|
|--2-2-0-2---2-0-2-|------2---2-0-2-2---0-2-2---|
|------------------|----------------------------|
|
|  W                  +W
|--9---------------|--(9)-----------------------|
|-10---------------|-(10)-----------------------|
|-11---------------|-(11)-----------------------|
|-11---------------|-(11)-----------------------|
|--9---------------|--(9)-----------------------|
|------------------|----------------------------|


   E E E E E E E E     E  E E E E E E E
|------------------|---------------------|
|------------------|---------------------|
|------------------|---------------------|
|----2-0-2---2-0-2-|------2---2---0---0--|
|------------------|---------------------|
|
|  W                  +W
|--9---------------|--(9)----------------|
|--9---------------|--(9)----------------|
|--9---------------|--(9)----------------|
|-11---------------|-(11)----------------|
|--9---------------|--(9)----------------|
|------------------|---------------------|


 4/4
  E E E E E E E E    E   E E E S S S S S S  E
|-----------------|---------------------------||
|-----------------|---------------------------||
|-----------------|-------------------------5-||
|-2-2-0-2---2-0-2-|------2---2-0-2-2---2-2----||
|-----------------|---------------------------||
|
| W                 +H..                    E
|-7---------------|-(7)--------------------10-||
|-7---------------|-(7)--------------------10-||
|-7---------------|-(7)--------------------10-||
|-9---------------|-(9)--------------------12-||
|-9---------------|-(9)--------------------12-||
|-----------------|------------------------10-||


  H=H           Q=156                                H.=H
   +W            +W             W           +H.      +Q
|-------------|-------------||-----------|-----------------|
|-------------|-------------||-----------|-----------------|
|--(5)--------|--(5)--------||-----------|-----------------|
|-------------|-------------||--1--------|--(1)------(1)---|
|-------------|-------------||-----------|-----------------|
|
|  +W            +W             W           +W
|-(10)--------|-(10)--------||-13--------|-(13)------------|
|-(10)--------|-(10)--------||-13--------|-(13)------------|
|-(10)--------|-(10)--------||-13--------|-(13)------------|
|-(12)--------|-(12)--------||-15--------|-(15)------------|
|-(12)--------|-(12)--------||-15--------|-(15)------------|
|-(10)--------|-(10)--------||-13--------|-(13)------------|


 Pre-Chorus
  Q=152
 7/8
  H     Q.      Q.    E E E E    H     E  E E
|------------|----------------|---------------||
|------------|----------3-1---|-----------8---||
|-1-----3----|--------------3-|--4-----6----6-||
|------------|--1-------------|---------------||
|------------|----------------|---------------||
|
| H     Q.      H..              H     Q.
|-6-----8----|--8-------------|-13----11------||
|-6-----8----|--9-------------|-14----11------||
|-6-----8----|-10-------------|-13----12------||
|-8----10----|-10-------------|-15----13------||
|------------|--8-------------|---------------||
|------------|----------------|---------------||


                 3/4
   H      E E E    Q   E E +E  E   Q   E E +Q
|---------------|----------------|----------------|
|-----------6---|--------4-(4)---|-------2-(2)----|
|---------6---6-|--------------x-|----------------|
|--4------------|--2---2---------|-0---0----------|
|---------------|----------------|----------------|
|
|  H..             H.              H.
|-11------------|--9-------------|-7--------------|
|-12------------|-11-------------|-9--------------|
|-13------------|-11-------------|-9--------------|
|-13------------|-11-------------|-9--------------|
|---------------|----------------|----------------|
|---------------|----------------|----------------|


   Chorus
   4/4
     S S S S S S S S S S S S S S S S     S  S S S S S S S S S S S  S S S S
||-----------------------------------|--------------------3-7-6-7----------|
||o----------7p5-----8p5---------7p5-|---7p=5-----8p5--------------5-8-7-8-|
||---0-0-0-0-----0-0-----0-0-0-0-----|--------0-0-----0-0------------------|
||o----------------------------------|-------------------------------------|
||-----------------------------------|-------------------------------------|
|
|    W                                  +H                Q        Q
||-----------------------------------|-------------------------------------|
||o-10-------------------------------|-(10)---------------8-------11-------|
||-----------------------------------|-------------------------------------|
||---7-------------------------------|--(7)---------------5--------8-------|
||o----------------------------------|-------------------------------------|
||-----------------------------------|-------------------------------------|


   S S S S S S S S S S S S S S S S     S  S S S S S S S  Q   Q
|----------------------------------|-----------------------------||
|----------7p5-----8p5---------7p5-|---7p=5-----5p3------1---1--o||
|--0-0-0-0-----0-0-----0-0-0-0-----|--------0-0-----0-0----------||
|----------------------------------|----------------------------o||
|----------------------------------|-----------------------------||
|
|  W                                  +H                 Q   Q
|----------------------------------|--------------------15--15---||
|-10-------------------------------|-(10)---------------16--16--o||
|----------------------------------|--------------------15--15---||
|--7-------------------------------|--(7)---------------17--17---||
|----------------------------------|--------------------18--18--o||
|----------------------------------|--------------------18--18---||


   Guitar Solo 2
    S S S S S S S S S S S S S S S S    S  S S S S S S S S S S S S S S S
||----------------------------------|------------------------------------|
||o---------------------------------|-------------------3-7-6-7----------|
||----------7p5-----8p5---------7p5-|--7p=5-----8p5-------------5-8-7-8--|
||o-0-0-0-0-----0-0-----0-0-0-0-----|-------0-0-----0-0------------------|
||----------------------------------|------------------------------------|
|
|   W                                 +H                Q       Q
||----------------------------------|------------------------------------|
||o-5-------------------------------|-(5)---------------3-------6--------|
||----------------------------------|------------------------------------|
||--2-------------------------------|-(2)---------------0-------3--------|
||o---------------------------------|------------------------------------|
||----------------------------------|------------------------------------|


                                   1.
  S S S S S S S S S S S S S S S S    S  S S S S S S S  Q   Q
|---------------------------------|----------------------------||
|---------------------------------|---------------------------o||
|---------7p5-----8p5---------7p5-|--7p=5-----5p3------1---1---||
|-0-0-0-0-----0-0-----0-0-0-0-----|-------0-0-----0-0---------o||
|---------------------------------|----------------------------||
|
| W                                 +H                 Q   Q
|---------------------------------|-------------------10--10---||
|-5-------------------------------|-(5)---------------11--11--o||
|---------------------------------|-------------------10--10---||
|-2-------------------------------|-(2)---------------12--12---||
|---------------------------------|-------------------13--13--o||
|---------------------------------|-------------------13--13---||


  2.
   Q   Q  Q   Q     Q   Q   Q   Q     S  S  S  S  S  S  S   S  S  S  S  S  S  S  S  S
|----------------|-----------------|-14-12-10-----------------------12-14-15-14-12----|
|----------------|----------5---7--|----------14-12-10-10-/12-14-15----------------15-|
|-------------7--|--4---5----------|--------------------------------------------------|
|--6---5--3------|-----------------|--------------------------------------------------|
|----------------|-----------------|--------------------------------------------------|
|
|  Q   Q  Q   Q     Q   Q   Q   Q     W
|------------12--|---------15--17--|--------------------------------------------------|
|-11--10--8------|-14--15----------|-15-----------------------------------------------|
|-------------9--|---------12--14--|--------------------------------------------------|
|--8---7--5------|-11--12----------|-12-----------------------------------------------|
|----------------|-----------------|--------------------------------------------------|
|----------------|-----------------|--------------------------------------------------|


    S   S  S   S  S  S  S  S  S  S  S  S  s E.
|----------------------14-15-17-15-14-----------|
|--14--12-12-/14-15-17----------------17-15-----|
|-----------------------------------------------|
|-----------------------------------------------|
|-----------------------------------------------|
|
|  +H.                                    Q
|-----------------------------------------------|
|-(15)------------------------------------------|
|-----------------------------------------------|
|-(12)------------------------------------------|
|-----------------------------------------------|
|-----------------------------------------------|


 Interlude
   E        E       E        E        Q.                        S    S
|-------------------------------------------------------------------------|
|-------------------------------------------------------------------------|
|-------------------------------------------------------------------------|
|--0-------------------------0----------------------------------0----0----|
|-------------------------------------------------------------------------|
|
| Gtr II
|  T        T                T        T        T                T
|  |------6-------| |------6-------|  |------6-------| |-------6--------|
|  S  S  S  S  S  S S  S  S  S  S  S  S  S  S  S  S  S S  S  S  S  S    S
|-15p14p12---------------------12h14-15p14p12---------------------12h==14-|
|-------------------------------------------------------------------------|
|----------16p12p11p9h11h12-16----------------16p12p11p9h11h12-16---------|
|-------------------------------------------------------------------------|
|-------------------------------------------------------------------------|
|-------------------------------------------------------------------------|


   E        E       E        S    S     E        E       Q
|----------------------------------------------------------------------------|
|----------------------------------------------------------------------------|
|----------------------------------------------------------------------------|
|--0-------------------------0----0-----0------------------------------------|
|--------------------------------------------------------3-------------------|
|
|  T        T                T          T        T                T
|  |------6-------| |-------6--------|  |------6-------| |------6-------|
|  S  S  S  S  S  S S  S  S  S  S    S  S  S  S  S  S  S S  S  S  S  S  S
|-15p14p12---------------------12h==14-15p14p12---------------------12h14----|
|----------------------------------------------------------------------------|
|----------16p12p11p9h11h12-16------------------16p12p11p9h11h12-16----------|
|----------------------------------------------------------------------------|
|----------------------------------------------------------------------------|
|----------------------------------------------------------------------------|


   E        E       E        E        Q.                        S    S
|-------------------------------------------------------------------------|
|-------------------------------------------------------------------------|
|-------------------------------------------------------------------------|
|--0-------------------------0----------------------------------0----0----|
|-------------------------------------------------------------------------|
|
|  T        T                T        T        T                T
|  |------6-------| |------6-------|  |------6-------| |-------6--------|
|  S  S  S  S  S  S S  S  S  S  S  S  S  S  S  S  S  S S  S  S  S  S    S
|-15p14p12---------------------12h14-15p14p12---------------------12h==14-|
|-------------------------------------------------------------------------|
|----------17p12p11p9h11h12-17----------------17p12p11p9h11h12-17---------|
|-------------------------------------------------------------------------|
|-------------------------------------------------------------------------|
|-------------------------------------------------------------------------|


   E        E       E        S    S     E        E       Q
|----------------------------------------------------------------------------|
|----------------------------------------------------------------------------|
|----------------------------------------------------------------------------|
|--0-------------------------0----0-----0--------2-------3-------------------|
|----------------------------------------------------------------------------|
|
|  T        T                T          T        T                T
|  |------6-------| |-------6--------|  |------6-------| |------6-------|
|  S  S  S  S  S  S S  S  S  S  S    S  S  S  S  S  S  S S  S  S  S  S  S
|-15p14p12---------------------12h==14-15p14p12---------------------12h14----|
|----------------------------------------------------------------------------|
|----------17p12p11p9h11h12-17------------------17p12p11p9h11h12-17----------|
|----------------------------------------------------------------------------|
|----------------------------------------------------------------------------|
|----------------------------------------------------------------------------|


   E        E       E        E        Q.                        S    S
|-------------------------------------------------------------------------|
|-------------------------------------------------------------------------|
|-------------------------------------------------------------------------|
|--0-------------------------0----------------------------------0----0----|
|-------------------------------------------------------------------------|
|
|  T        T                T        T        T                T
|  |------6-------| |------6-------|  |------6-------| |-------6--------|
|  S  S  S  S  S  S S  S  S  S  S  S  S  S  S  S  S  S S  S  S  S  S    S
|-14p12p10---------------------10h12-14p12p10---------------------10h==12-|
|-------------------------------------------------------------------------|
|----------14p12p11p9h11h12-14----------------14p12p11p9h11h12-14---------|
|-------------------------------------------------------------------------|
|-------------------------------------------------------------------------|
|-------------------------------------------------------------------------|


   E        E       E        S    S     E        E       Q
|----------------------------------------------------------------------------|
|----------------------------------------------------------------------------|
|----------------------------------------------------------------------------|
|--0-------------------------0----0-----0------------------------------------|
|--------------------------------------------------------3-------------------|
|
|  T        T                T          T        T                T
|  |------6-------| |-------6--------|  |------6-------| |------6-------|
|  S  S  S  S  S  S S  S  S  S  S    S  S  S  S  S  S  S S  S  S  S  S  S
|-14p12p10---------------------10h==12-14p12p10---------------------12h14----|
|----------------------------------------------------------------------------|
|----------14p12p11p9h11h12-14------------------14p12p11p9h11h12-14----------|
|----------------------------------------------------------------------------|
|----------------------------------------------------------------------------|
|----------------------------------------------------------------------------|


   E        E       E        E        Q.                        S    S
|-------------------------------------------------------------------------|
|-------------------------------------------------------------------------|
|-------------------------------------------------------------------------|
|--0-------------------------0----------------------------------0----0----|
|-------------------------------------------------------------------------|
|
|  T        T                T        T        T                T
|  |------6-------| |------6-------|  |------6-------| |-------6--------|
|  S  S  S  S  S  S S  S  S  S  S  S  S  S  S  S  S  S S  S  S  S  S    S
|-15p14p12---------------------12h14-15p14p12---------------------12h==14-|
|-------------------------------------------------------------------------|
|----------16p12p11p9h11h12-16----------------16p12p11p9h11h12-16---------|
|-------------------------------------------------------------------------|
|-------------------------------------------------------------------------|
|-------------------------------------------------------------------------|


   E        E       E        S    S     E        E       Q
|----------------------------------------------------------------------------|
|----------------------------------------------------------------------------|
|----------------------------------------------------------------------------|
|--0-------------------------0----0-----0--------2-------3-------------------|
|----------------------------------------------------------------------------|
|
|  T        T                T          T        T                T
|  |------6-------| |-------6--------|  |------6-------| |------6-------|
|  S  S  S  S  S  S S  S  S  S  S    S  S  S  S  S  S  S S  S  S  S  S  S
|-15p14p12---------------------12h==14-15p14p12---------------------12h14----|
|----------------------------------------------------------------------------|
|----------16p12p11p9h11h12-16------------------16p12p11p9h11h12-16----------|
|----------------------------------------------------------------------------|
|----------------------------------------------------------------------------|
|----------------------------------------------------------------------------|


   E        E        E        E        Q.                         S    S
|---------------------------------------------------------------------------|
|---------------------------------------------------------------------------|
|---------------------------------------------------------------------------|
|--0--------------------------0-----------------------------------0----0----|
|---------------------------------------------------------------------------|
|
|  T        T                 T        T        T                 T
|  |------6-------|  |------6-------|  |------6-------|  |-------6--------|
|  S  S  S  S  S  S  S  S  S  S  S  S  S  S  S  S  S  S  S  S  S  S  S    S
|-19p17p15----------------------15h17-19p17p15----------------------15h==17-|
|---------------------------------------------------------------------------|
|----------19p16p14p12h14h16-19----------------19p16p14p12h14h16-19---------|
|---------------------------------------------------------------------------|
|---------------------------------------------------------------------------|
|---------------------------------------------------------------------------|


   E        E        E        S    S     E        E        Q
|------------------------------------------------------------------------------|
|------------------------------------------------------------------------------|
|------------------------------------------------------------------------------|
|--0--------------------------0----0-----0-------------------------------------|
|----------------------------------------------------------3-------------------|
|
|  T        T                 T          T        T                 T
|  |------6-------|  |-------6--------|  |------6-------|  |------6-------|
|  S  S  S  S  S  S  S  S  S  S  S    S  S  S  S  S  S  S  S  S  S  S  S  S
|-19p17p15----------------------15h==17-19p17p15----------------------15h17----|
|------------------------------------------------------------------------------|
|----------19p16p14p12h14h16-19------------------19p16p14p12h14h16-19----------|
|------------------------------------------------------------------------------|
|------------------------------------------------------------------------------|
|------------------------------------------------------------------------------|


   E        E        E        E        Q.                         S    S
|---------------------------------------------------------------------------|
|---------------------------------------------------------------------------|
|---------------------------------------------------------------------------|
|--0--------------------------0-----------------------------------0----0----|
|---------------------------------------------------------------------------|
|
|  T        T                 T        T        T                 T
|  |------6-------|  |------6-------|  |------6-------|  |-------6--------|
|  S  S  S  S  S  S  S  S  S  S  S  S  S  S  S  S  S  S  S  S  S  S  S    S
|-20p17p15----------------------15h17-20p17p15----------------------15h==17-|
|---------------------------------------------------------------------------|
|----------19p17p14p12h14h17-19----------------19p17p14p12h14h17-19---------|
|---------------------------------------------------------------------------|
|---------------------------------------------------------------------------|
|---------------------------------------------------------------------------|


   E        E        E        S    S     E        E        Q
|------------------------------------------------------------------------------|
|------------------------------------------------------------------------------|
|------------------------------------------------------------------------------|
|--0--------------------------0----0-----0--------2--------3-------------------|
|------------------------------------------------------------------------------|
|
|  T        T                 T          T        T                 T
|  |------6-------|  |-------6--------|  |------6-------|  |------6-------|
|  S  S  S  S  S  S  S  S  S  S  S    S  S  S  S  S  S  S  S  S  S  S  S  S
|-20p17p15----------------------15h==17-20p17p15----------------------15h17----|
|------------------------------------------------------------------------------|
|----------19p17p14p12h14h17-19------------------19p17p14p12h14h17-19----------|
|------------------------------------------------------------------------------|
|------------------------------------------------------------------------------|
|------------------------------------------------------------------------------|


   E        E        E        E        Q.                         S    S
|---------------------------------------------------------------------------|
|---------------------------------------------------------------------------|
|---------------------------------------------------------------------------|
|--0--------------------------0-----------------------------------0----0----|
|---------------------------------------------------------------------------|
|
|  T        T                 T        T        T                 T
|  |------6-------|  |------6-------|  |------6-------|  |-------6--------|
|  S  S  S  S  S  S  S  S  S  S  S  S  S  S  S  S  S  S  S  S  S  S  S    S
|-17p15p14----------------------14h15-17p15p14----------------------14h==15-|
|---------------------------------------------------------------------------|
|----------17p16p14p12h14h16-17----------------17p16p14p12-14h16-17---------|
|---------------------------------------------------------------------------|
|---------------------------------------------------------------------------|
|---------------------------------------------------------------------------|


   E        E        E        S    S     E        E        Q
|------------------------------------------------------------------------------|
|------------------------------------------------------------------------------|
|------------------------------------------------------------------------------|
|--0--------------------------0----0-----0-------------------------------------|
|----------------------------------------------------------3-------------------|
|
|  T        T                 T          T        T                 T
|  |------6-------|  |-------6--------|  |------6-------|  |------6-------|
|  S  S  S  S  S  S  S  S  S  S  S    S  S  S  S  S  S  S  S  S  S  S  S  S
|-17p15p14----------------------14h==15-17p15p14----------------------14h15----|
|------------------------------------------------------------------------------|
|----------17p16p14p12h14h16-17------------------17p16p14p12-14h16-17----------|
|------------------------------------------------------------------------------|
|------------------------------------------------------------------------------|
|------------------------------------------------------------------------------|


   E        E        E        E        Q.                         S    S
|---------------------------------------------------------------------------|
|---------------------------------------------------------------------------|
|---------------------------------------------------------------------------|
|--0--------------------------0-----------------------------------0----0----|
|---------------------------------------------------------------------------|
|
|  T        T                 T        T        T                 T
|  |------6-------|  |------6-------|  |------6-------|  |-------6--------|
|  S  S  S  S  S  S  S  S  S  S  S  S  S  S  S  S  S  S  S  S  S  S  S    S
|-19p17p15----------------------15h17-19p17p15----------------------15h==17-|
|---------------------------------------------------------------------------|
|----------19p16p14p12h14h16-19----------------19p16p14p12h14h16-19---------|
|---------------------------------------------------------------------------|
|---------------------------------------------------------------------------|
|---------------------------------------------------------------------------|


   E        E        E        S    S     E        E        Q
|------------------------------------------------------------------------------|
|------------------------------------------------------------------------------|
|------------------------------------------------------------------------------|
|--0--------------------------0----0-----0--------2--------3-------------------|
|------------------------------------------------------------------------------|
|
|  T        T                 T          T        T                 T
|  |------6-------|  |-------6--------|  |------6-------|  |------6-------|
|  S  S  S  S  S  S  S  S  S  S  S    S  S  S  S  S  S  S  S  S  S  S  S  S
|-19p17p15----------------------15h==17-19p17p15----------------------15h17----|
|------------------------------------------------------------------------------|
|----------19p16p14p12h14h16-19------------------19p16p14p12h14h16-19----------|
|------------------------------------------------------------------------------|
|------------------------------------------------------------------------------|
|------------------------------------------------------------------------------|


 Guitar Solo 3
  S S S S S S S S S S S S S S S S    S  S S S S S S S S S S S S S S S
|---------------------------------|-----------------------------------||
|---------------------------------|-----------------------------------||
|-7-7-7-7-7-7-7-7-7-7-7-7-7-7-7-7-|--7--7-7-7-7-7-7-7-7-7-7-7-7-7-7-7-||
|---------------------------------|-----------------------------------||
|---------------------------------|-----------------------------------||
|
| Gtr III
| W                                 +W
|-7-------------------------------|-(7)-------------------------------||
|-8-------------------------------|-(8)-------------------------------||
|-9-------------------------------|-(9)-------------------------------||
|-9-------------------------------|-(9)-------------------------------||
|-7-------------------------------|-(7)-------------------------------||
|---------------------------------|-----------------------------------||


  S S S S S S S S S S S S S S S S
|------------------------------------|
|------------------------------------|
|-5-5-5-5-5-5-5-5-5-5-5-5-5-5-5-5----|
|------------------------------------|
|------------------------------------|
|
| W
|-5----------------------------------|
|-6----------------------------------|
|-7----------------------------------|
|-7----------------------------------|
|-5----------------------------------|
|------------------------------------|


   S  S S S S S S S S S S S S S S S    S S S S S S S S S S S S S S S S
|-----------------------------------||---------------------------------|
|-----------------------------------||---------------------------------|
|--5--5-5-5-5-5-5-5-5-5-5-5-5-5-5-5-||-7-7-7-7-7-7-7-7-7-7-7-7-7-7-7-7-|
|-----------------------------------||---------------------------------|
|-----------------------------------||---------------------------------|
|
| +W                                   W
|-(5)-------------------------------||-7-------------------------------|
|-(6)-------------------------------||-8-------------------------------|
|-(7)-------------------------------||-9-------------------------------|
|-(7)-------------------------------||-9-------------------------------|
|-(5)-------------------------------||-7-------------------------------|
|-----------------------------------||---------------------------------|


   S  S S S S S S S S S S S S S S S
|--------------------------------------|
|--------------------------------------|
|--7--7-7-7-7-7-7-7-7-7-7-7-7-7-7-7----|
|--------------------------------------|
|--------------------------------------|
|
| +W
|-(7)----------------------------------|
|-(8)----------------------------------|
|-(9)----------------------------------|
|-(9)----------------------------------|
|-(7)----------------------------------|
|--------------------------------------|


  S S S S S S S S S S S S S S S S
|---------------------------------|
|---------------------------------|
|---------------------------------|
|-4-4-4-4-4-4-4-4-4-4-4-4-4-4-4-4-|
|---------------------------------|
|
| W
|-7-------------------------------|
|-9-------------------------------|
|-8-------------------------------|
|-6-------------------------------|
|-6-------------------------------|
|---------------------------------|


   S  S S S S S S S S S S S S S S S     S S S S S S S S S S S S S S S S
|-----------------------------------||----------------------------------|
|-----------------------------------||----------------------------------|
|-----------------------------------||--4-4-4-4-4-4-4-4-4-4-4-4-4-4-4-4-|
|--4--4-4-4-4-4-4-4-4-4-4-4-4-4-4-4-||----------------------------------|
|-----------------------------------||----------------------------------|
|
| +W                                    W
|-(7)-------------------------------||--9-------------------------------|
|-(9)-------------------------------||--9-------------------------------|
|-(8)-------------------------------||--9-------------------------------|
|-(6)-------------------------------||-11-------------------------------|
|-(6)-------------------------------||-11-------------------------------|
|-----------------------------------||----------------------------------|


  S S S S S S S S S S S S S S S S   S S S S S S S S S S S S S S S S
|---------------------------------|---------------------------------|
|---------------------------------|---------------------------------|
|-2-2-2-2-2-2-2-2-2-2-2-2-2-2-2-2-|-1-1-1-1-1-1-1-1-1-1-1-1-1-1-1-1-|
|---------------------------------|---------------------------------|
|---------------------------------|---------------------------------|
|
| W                                 W
|-7-------------------------------|-6-------------------------------|
|-9-------------------------------|-7-------------------------------|
|-9-------------------------------|-6-------------------------------|
|-9-------------------------------|-8-------------------------------|
|---------------------------------|-9-------------------------------|
|-7-------------------------------|-6-------------------------------|


  S S S S S S S S S S S S S S S S
|------------------------------------|
|------------------------------------|
|-0-0-0-0-0-0-0-0-0-0-0-0-0-0-0-0----|
|------------------------------------|
|------------------------------------|
|
| W
|-5----------------------------------|
|-5----------------------------------|
|-6----------------------------------|
|-7----------------------------------|
|-7----------------------------------|
|------------------------------------|


   S S S S S S S S S S S S S S S S   E E  E E +E   E Q
|----------------------------------|--------8-(8)-11-8--||
|----------------------------------|---4-/9-------------||
|--4-4-4-4-4-4-4-4-4-4-4-4-4-4-4-4-|-6------------------||
|----------------------------------|--------------------||
|----------------------------------|--------------------||
|
|  W                                 W
|--9-------------------------------|-7------------------||
|--9-------------------------------|-7------------------||
|--9-------------------------------|-8------------------||
|-11-------------------------------|-9------------------||
|-11-------------------------------|--------------------||
|----------------------------------|-7------------------||


                                                |-3-| |-3-|
  E. S S S S S E. S S S S S    S  S S S S S S S E E E E E E
|---------------------------|----------------------------------|
|-0--0-0-0-0-0-0--0-0-0-0-0-|--0--0-0-0-0-0-0-0-9-7-5----------|
|---------------------------|-------------------------9-7-5----|
|---------------------------|----------------------------------|
|---------------------------|----------------------------------|
|
| W                           +W
|-5-------------------------|-(5)------------------------------|
|-7-------------------------|-(7)------------------------------|
|-7-------------------------|-(7)------------------------------|
|-7-------------------------|-(7)------------------------------|
|---------------------------|----------------------------------|
|---------------------------|----------------------------------|


 Interlude
  Gtr I
   W
|-----------------------------------------------------------------------|
|--2--------------------------------------------------------------------|
|-----------------------------------------------------------------------|
|-----------------------------------------------------------------------|
|-----------------------------------------------------------------------|
|
| Gtr II
|  T        T                T        T        T                T
|  |------6-------| |------6-------|  |------6-------| |------6-------|
|  S  S  S  S  S  S S  S  S  S  S  S  S  S  S  S  S  S S  S  S  S  S  S
|-15p14p12---------------------12h14-15p14p12---------------------12h14-|
|-----------------------------------------------------------------------|
|----------16p12p11p9h11h12-16----------------16p12p11p9h11h12-16-------|
|-----------------------------------------------------------------------|
|-----------------------------------------------------------------------|
|-----------------------------------------------------------------------|
|
| Gtr III
|  W
|-12--------------------------------------------------------------------|
|-12--------------------------------------------------------------------|
|-12--------------------------------------------------------------------|
|-14--------------------------------------------------------------------|
|-14--------------------------------------------------------------------|
|-12--------------------------------------------------------------------|


   W
|------------------------------------------------------------------------|
|------------------------------------------------------------------------|
|--3---------------------------------------------------------------------|
|------------------------------------------------------------------------|
|------------------------------------------------------------------------|
|
|  T        T                T        T        T                T
|  |------6-------| |------6-------|  |------6-------| |------6-------|
|  S  S  S  S  S  S S  S  S  S  S  S  S  S  S  S  S  S S  S  S  S  S  S
|-15p14p12---------------------12h14-15p14p12---------------------10h12--|
|------------------------------------------------------------------------|
|----------17p12p11p9h11h12-17----------------17p12p11p9h11h12-17--------|
|------------------------------------------------------------------------|
|------------------------------------------------------------------------|
|------------------------------------------------------------------------|
|
|  W
|--8---------------------------------------------------------------------|
|--8---------------------------------------------------------------------|
|--9---------------------------------------------------------------------|
|-10---------------------------------------------------------------------|
|-10---------------------------------------------------------------------|
|--8---------------------------------------------------------------------|


   W
|-----------------------------------------------------------------------|
|-----------------------------------------------------------------------|
|--5--------------------------------------------------------------------|
|-----------------------------------------------------------------------|
|-----------------------------------------------------------------------|
|
|  T        T                T        T        T                T
|  |------6-------| |------6-------|  |------6-------| |------6-------|
|  S  S  S  S  S  S S  S  S  S  S  S  S  S  S  S  S  S S  S  S  S  S  S
|-14p12p10---------------------10h12-14p12p10---------------------12h14-|
|-----------------------------------------------------------------------|
|----------14p12p11p9h11h12-14----------------14p12p11p9h11h12-14-------|
|-----------------------------------------------------------------------|
|-----------------------------------------------------------------------|
|-----------------------------------------------------------------------|
|
|  W
|-10--------------------------------------------------------------------|
|-10--------------------------------------------------------------------|
|-11--------------------------------------------------------------------|
|-12--------------------------------------------------------------------|
|-12--------------------------------------------------------------------|
|-10--------------------------------------------------------------------|


   W
|------------------------------------------------------------------------|
|--2---------------------------------------------------------------------|
|------------------------------------------------------------------------|
|------------------------------------------------------------------------|
|------------------------------------------------------------------------|
|
|  T        T                T        T        T                T
|  |------6-------| |------6-------|  |------6-------| |------6-------|
|  S  S  S  S  S  S S  S  S  S  S  S  S  S  S  S  S  S S  S  S  S  S  S
|-15p14p12---------------------12h14-15p14p12---------------------12h14--|
|------------------------------------------------------------------------|
|----------16p12p11p9h11h12-16----------------16p12p11p9h11h12-16--------|
|------------------------------------------------------------------------|
|------------------------------------------------------------------------|
|------------------------------------------------------------------------|
|
|  W
|-12---------------------------------------------------------------------|
|-12---------------------------------------------------------------------|
|-12---------------------------------------------------------------------|
|-14---------------------------------------------------------------------|
|-14---------------------------------------------------------------------|
|-12---------------------------------------------------------------------|


   W
|-----------------------------------------------------------------------|
|-----------------------------------------------------------------------|
|-----------------------------------------------------------------------|
|--0--------------------------------------------------------------------|
|-----------------------------------------------------------------------|
|
|  T        T                T        T        T                T
|  |------6-------| |------6-------|  |------6-------| |------6-------|
|  S  S  S  S  S  S S  S  S  S  S  S  S  S  S  S  S  S S  S  S  S  S  S
|-15p14p12---------------------12h14-15p14p12---------------------12h14-|
|-----------------------------------------------------------------------|
|----------16p12p11p9h11h12-16----------------16p12p11p9h11h12-16-------|
|-----------------------------------------------------------------------|
|-----------------------------------------------------------------------|
|-----------------------------------------------------------------------|
|
|  W
|-12--------------------------------------------------------------------|
|-12--------------------------------------------------------------------|
|-12--------------------------------------------------------------------|
|-14--------------------------------------------------------------------|
|-14--------------------------------------------------------------------|
|-12--------------------------------------------------------------------|


   W
|------------------------------------------------------------------------|
|------------------------------------------------------------------------|
|--3---------------------------------------------------------------------|
|------------------------------------------------------------------------|
|------------------------------------------------------------------------|
|
|  T        T                T        T        T                T
|  |------6-------| |------6-------|  |------6-------| |------6-------|
|  S  S  S  S  S  S S  S  S  S  S  S  S  S  S  S  S  S S  S  S  S  S  S
|-15p14p12---------------------12h14-15p14p12---------------------10h12--|
|------------------------------------------------------------------------|
|----------17p12p11p9h11h12-17----------------17p12p11p9h11h12-17--------|
|------------------------------------------------------------------------|
|------------------------------------------------------------------------|
|------------------------------------------------------------------------|
|
|  W
|--8---------------------------------------------------------------------|
|--8---------------------------------------------------------------------|
|--9---------------------------------------------------------------------|
|-10---------------------------------------------------------------------|
|-10---------------------------------------------------------------------|
|--8---------------------------------------------------------------------|


   W
|-----------------------------------------------------------------------|
|-----------------------------------------------------------------------|
|--5--------------------------------------------------------------------|
|-----------------------------------------------------------------------|
|-----------------------------------------------------------------------|
|
|  T        T                T        T        T                T
|  |------6-------| |------6-------|  |------6-------| |------6-------|
|  S  S  S  S  S  S S  S  S  S  S  S  S  S  S  S  S  S S  S  S  S  S  S
|-14p12p10---------------------10h12-14p12p10---------------------12h14-|
|-----------------------------------------------------------------------|
|----------14p12p11p9h11h12-14----------------14p12p11p9h11h12-14-------|
|-----------------------------------------------------------------------|
|-----------------------------------------------------------------------|
|-----------------------------------------------------------------------|
|
|  W
|-10--------------------------------------------------------------------|
|-10--------------------------------------------------------------------|
|-11--------------------------------------------------------------------|
|-12--------------------------------------------------------------------|
|-12--------------------------------------------------------------------|
|-10--------------------------------------------------------------------|


   +W
|--------------------------------------------------------------------------|
|--------------------------------------------------------------------------|
|--(5)---------------------------------------------------------------------|
|--------------------------------------------------------------------------|
|--------------------------------------------------------------------------|
|
|   T         T                T        T        T                T
|   |-------6-------| |------6-------|  |------6-------| |------6-------|
|   S   S  S  S  S  S S  S  S  S  S  S  S  S  S  S  S  S S  S  S  S  S  S
|--14p=12p10---------------------10h12-14p12p10---------------------12h14--|
|--------------------------------------------------------------------------|
|------------14p12p11p9h11h12-14----------------14p12p11p9h11h12-14--------|
|--------------------------------------------------------------------------|
|--------------------------------------------------------------------------|
|--------------------------------------------------------------------------|
|
|  +W
|-(10)---------------------------------------------------------------------|
|-(10)---------------------------------------------------------------------|
|-(11)---------------------------------------------------------------------|
|-(12)---------------------------------------------------------------------|
|-(12)---------------------------------------------------------------------|
|-(10)---------------------------------------------------------------------|


   Outro
    S S S S S S S S S S S S S S S S    S  S S S S S S S S S S S S S S S
||----------------------------------|------------------------------------|
||o---------------------------------|-------------------3-7-6-7----------|
||----------7p5-----8p5---------7p5-|--7p=5-----8p5-------------5-8-7-8--|
||o-0-0-0-0-----0-0-----0-0-0-0-----|-------0-0-----0-0------------------|
||----------------------------------|------------------------------------|
|
|   Gtr III
|   W                                 +H                Q       Q
||----------------------------------|------------------------------------|
||o-5-------------------------------|-(5)---------------3-------6--------|
||----------------------------------|------------------------------------|
||--2-------------------------------|-(2)---------------0-------3--------|
||o---------------------------------|------------------------------------|
||----------------------------------|------------------------------------|


  S S S S S S S S S S S S S S S S    S  S S S  S  S S S  Q   Q   4x
|---------------------------------|------------------------------||
|---------------------------------|-----------------------------o||
|---------7p5-----8p5---------7p5-|--7p=5------5p=3------1---1---||
|-0-0-0-0-----0-0-----0-0-0-0-----|-------0-0-------0-0---------o||
|---------------------------------|------------------------------||
|
| W                                 +E    E   +Q         Q   Q   4x
|---------------------------------|---------------------10--10---||
|-5-------------------------------|-(5)-----------------11--11--o||
|---------------------------------|-------4---(4)-------10--10---||
|-2-------------------------------|-(2)-----------------12--12---||
|---------------------------------|-------2---(2)-------13--13--o||
|---------------------------------|---------------------13--13---||


 3/4               4/4
                    |-3-|
  S S S S  Q   Q    q q q  Q   Q     +W
|-----------------|---------------:-------------:
|-----------------|---------------:-------------:
|----------1---1--|--------1---1--:--(1)--------:
|-0-0-0-0---------|-0-0-0---------:-------------:
|-----------------|---------------:-------------:
|
|                              <
| Q        Q   Q    H      Q   Q     +W
|---------10--10--|-------10--10--:-(10)--------:
|---------11--11--|-------11--11--:-(11)--------:
|---------10--10--|-------10--10--:-(10)--------:
|---------12--12--|-------12--12--:-(12)--------:
|---------13--13--|-------13--13--:-(13)--------:
|---------13--13--|-------13--13--:-(13)--------:


                H.=H          Q=100
   +W            +W            +W
|-------------:-------------:---------*|
|-------------:-------------:---------*|
|--(1)--------:--(1)--------:--(1)----*|
|-------------:-------------:---------*|
|-------------:-------------:---------*|
|
|  +W            +W            +W
|-(10)--------:-(10)--------:-(10)----*|
|-(11)--------:-(11)--------:-(11)----*|
|-(10)--------:-(10)--------:-(10)----*|
|-(12)--------:-(12)--------:-(12)----*|
|-(13)--------:-(13)--------:-(13)----*|
|-(13)--------:-(13)--------:-(13)----*|



Duration Legend
---------------
W - whole; H - half; Q - quarter; E - 8th; S - 16th; T - 32nd; X - 64th; a - acciaccatura
+ - note tied to previous; . - note dotted; .. - note double dotted
Uncapitalized letters represent notes that are staccato (1/2 duration)
Irregular groupings are notated above the duration line
Duration letters will always appear directly above the note/fret number it represents the
duration for.  Duration letters with no fret number below them represent rests.  Multi-
bar rests are notated in the form Wxn, where n is the number of bars to rest for.  Low
melody durations appear below the staff

Tablature Legend
----------------
 h   - hammer-on
 p   - pull-off
 b   - bend
 pb  - pre-bend
 r   - bend release (if no number after the r, then release immediately)
 /\  - slide into or out of (from/to "nowhere")
 s   - legato slide
 S   - shift slide
 - natural harmonic
[n]  - artificial harmonic
n(n) - tapped harmonic
 ~   - vibrato
 tr  - trill
 T   - tap
 TP  - trem. picking
 PM  - palm muting
\n/  - tremolo bar dip; n = amount to dip
 \n  - tremolo bar down
 n/  - tremolo bar up
/n\  - tremolo bar inverted dip
 =   - hold bend; also acts as connecting device for hammers/pulls
 <> - volume swell (louder/softer)
 x   - on rhythm slash represents muted slash
 o   - on rhythm slash represents single note slash

Misc Legend
-----------
 |  - bar
||  - double bar
||o - repeat start
o|| - repeat end
*|  - double bar (ending)
 :  - bar (freetime)
 $  - Segno
 &  - Coda
Tempo markers -  = BPM(8/16=s8/s16), where s8 = swing 8ths, s16 = swing 16ths


            
            
Suggest correction
Creating personal tab
Creating personal tab
You can edit any tab online and save it as your Personal.

You can edit, replace or remove any tab part or add personal notes – all changes will be seen only by you.

Personal tabs can be accessed anytime from any device, even offline.
Learn more »
Give kudos to tab author, rate the tab!
1 2 3 4 5
comments
print report bad tab
1 comment total.
0 reply
JenoUnion 399 Jul 23, 2016 03:34 PM

Great tab, definitely the best bass tab here. Doesn't seem like anyone else catches the right parts.

guest
You may want to rate the tab now too:
select rating
Wanna post a correction for this tab? Suggest correction