Oops, an error
Loading. Please wait.
165,404 views 135 this week
72 commentsread comments
1 2 3 4 5
x 93
add to favorites
×
Save as Personal and add changes to this tab that will be seen only by you. Learn more ›
×
You can save this tab as Personal to edit and correct it or add notes. All changes will be seen only by you. Learn more »
launch autoscroll
font size
0
reset
guitar tuner
backing track
0:00
0:00
edit
Autoscroll
slow
fast
+/-
esc
set tempo
stop
System of a Down: Aerials
Tabbed by: Badassbassist (Me)


[Chorus]

Life is a waterfall 
F|-------------------------------------------------------------------------------|
C|-------------------------------------------------------------------------------|
G|----------------------------------------------10---------8---------7---------5-|
C|8--8--8-8-8--8--8-8-8--8--8-8-8-8-8-8-0-0-0-0----0-0-0-0---0-0-0-0---0-0-0-0---|


[Verse]

Aerials in the sky...
F|---------------------------------------|
C|---------------------------------------|
G|---------------------------------------|
C|3-2-0----5-3-2----3-5-7--8-7-5-3-2-0---|


[Chorus]

Life is a waterfall 
F|-------------------------------------------------------------------------------|
C|-------------------------------------------------------------------------------|
G|----------------------------------------------10---------8---------7---------5-|
C|8--8--8-8-8--8--8-8-8--8--8-8-8-8-8-8-0-0-0-0----0-0-0-0---0-0-0-0---0-0-0-0---|

(on the second time you do this you play)

F|------------------------------------|
C|------------------------------------|
G|------------------------------------|
C|8--8--8-8-8-8-8-7-7-7-7-7-7-7-7-7-7-|

[Verse]

Aerials in the sky...
F|---------------------------------------|
C|---------------------------------------|
G|---------------------------------------|
C|3-2-0----5-3-2----2-3-5-7-8-7-5-3-2-0--|

[Outro]

            
            
Suggest correction
Creating personal tab
Creating personal tab
You can edit any tab online and save it as your Personal.

You can edit, replace or remove any tab part or add personal notes – all changes will be seen only by you.

Personal tabs can be accessed anytime from any device, even offline.
Learn more »
comments
print report bad tab
72 comments total. Showing first comments. show 1 bad comment
+5 reply
run4fun832 100 Mar 01, 2003 07:00 PM

FINALLY!!!!!!!!!!!!!!!!!!!!!!!!!!!!!!!!!!
a good tab
thanx man

+1 reply
Dromar 70 Mar 16, 2003 07:00 PM

this is the most correct of all 4

when i play it tho, i play the verse on the higher C string (2nd string), i think it blends better

good job

guest
You may want to rate the tab now too:
select rating
Wanna post a correction for this tab? Suggest correction