Oops, an error
Loading. Please wait.
We have an official Boom tab made by UG professional guitarists. Check out the tab »
×
4,847 views 3 this week
4 commentsread comments
1 2 3 4 5
x 7
add to favorites
×
Save as Personal and add changes to this tab that will be seen only by you. Learn more ›
×
You can save this tab as Personal to edit and correct it or add notes. All changes will be seen only by you. Learn more »
launch autoscroll
font size
0
reset
guitar tuner
backing track
0:00
0:00
edit
Autoscroll
slow
fast
+/-
esc
set tempo
stop
Difficulty: Novice

Song: Boom!

Artist: System of a Down

Album: Steal this Album!

Tabbed by: Gage Fowler (Kerplode)

E-Mail: RememberLetItBe@yahoo.com

Tuning: Drop C (CGCF)



Intro [0:00] - [0:13]

F |-----------------------------------------------|
C |-----------------------------------------------|
G |-----------------------------------------------|   X 2 (Right before
C |13-13-12-12-13-13-12-12-13-13-12-12-13-13-12-12|  the end, cut off the last 
12th fret note)


Verse (I've been walking through your streets...) [0:13] - [0:37]

F |---------------------------------------------------------------|
C |---------------------------------------------------------------|
G |5-5-5-5-5-5-5-5-4-4-4-4-4-4-4-4-7-7-7-7-7-7-7-7-5-5-5-5-5-5-5-5|
C |---------------------------------------------------------------|

F |----------------------------------------------------------------|
C |--------------------------------5555555555555555----------------|
G |55555555555555554444444444444444----------------5555555555555555|   <-- (Don't think of
C |----------------------------------------------------------------| it as being 
super-fast, because it really isnt if you're a finger-bassist)


Chorus (Boom! Boom! Boom! Boom!) [o:37] - [0:50]

F |----------|
C |----------|
G |----------|
C |0--0--0--0|

F |-------------------------------|
C |-------------------------------|
G |-------------------------------|
C |1-1-0-0-1-1-0-0-1-1-0-0-1-1-0-0|

F |----------|
C |----------|
G |----------|
C |0--0--0--0|


Verse (Modern globalization...!) [0:50] - [1:15]

F |---------------------------------------------------------------|
C |---------------------------------------------------------------|
G |5-5-5-5-5-5-5-5-4-4-4-4-4-4-4-4-7-7-7-7-7-7-7-7-5-5-5-5-5-5-5-5|
C |---------------------------------------------------------------|

F |----------------------------------------------------------------|
C |--------------------------------5555555555555555----------------|
G |55555555555555554444444444444444----------------5555555555555555|
C |----------------------------------------------------------------|

Chorus (Boom! Boom! Boom! Boom!) [1:15] - [1:30]

F |----------|
C |----------|
G |----------|
C |0--0--0--0|

F |-------------------------------|
C |-------------------------------|
G |-------------------------------|
C |1-1-0-0-1-1-0-0-1-1-0-0-1-1-0-0|

F |----------|
C |----------|
G |----------|
C |0--0--0--0|


F |-------------|
C |-------------|
G |-------------| (A little more sped up than when they go Boom! because they're saying it faster)
C |0-0-0-0-0-0-0|

Bridge (Why, must we...) [1:30] - [1:56]


F |-----------------------------------------------------------|
C |-----------------------------------------------------------|
G |-----------------------------------------------------------|   X 2 (wait a 
C |0---(0)(0)(0)--7--6--(6)(6)--7--9--10-----3--2--(2)(2)(2)--|

second before you repeat it)

*The (0)/(4) means to play the note softly, just to let the note ring longer*


Chorus & Outro (Boom! Boom! Boom! Boom!) [1:56] - [2:16]

F |----------|
C |----------|
G |----------|
C |0--0--0--0|

F |-------------------------------|
C |-------------------------------|
G |-------------------------------|
C |1-1-0-0-1-1-0-0-1-1-0-0-1-1-0-0|

F |----------|
C |----------|
G |----------|
C |0--0--0--0|


F |---------------|
C |---------------|
G |---------------|
C |0-0-0-0-0-0-0-0|

F |-------------|
C |-------------|
G |-------------|
C |1-1-0-0-1-1-0|

                                   E   N   D


*****************************************************************************************
*       This tab is the property of its writer. This tab can only be used for           *
*       Private study or for research. To allow posting this tab on another             *
*       website you must have the written consent via E-mail from me and all            *
*       credit must be given to me.                                                     *
*****************************************************************************************

            
            
Suggest correction
Creating personal tab
Creating personal tab
You can edit any tab online and save it as your Personal.

You can edit, replace or remove any tab part or add personal notes – all changes will be seen only by you.

Personal tabs can be accessed anytime from any device, even offline.
Learn more »
comments
print report bad tab
4 comments total. Showing first comments.
0 reply
DgorillazguyH 341 Jun 29, 2010 12:21 PM

sounds right to me!

0 reply
DgorillazguyH 341 Jun 29, 2010 12:35 PM

except this part:

C |0---(0)(0)(0)--5--4--(4)(4)--5--7--8-----1--0--(0)(0)(0)---
it should be this:
C |0---(0)(0)(0)--7--6--(6)(6)--7--9--10-----3--2--(2)(2)(2)--

if you update it ill rate it 5 stars.

0 reply
DgorillazguyH 341 Jun 30, 2010 04:52 AM

i see you fixed it, 5 stars.

guest
You may want to rate the tab now too:
select rating
Wanna post a correction for this tab? Suggest correction