Oops, an error
Loading. Please wait.
5,936 views 1 this week
2 commentsread comments
1 2 3 4 5
x 3
add to favorites
×
Save as Personal and add changes to this tab that will be seen only by you. Learn more ›
×
You can save this tab as Personal to edit and correct it or add notes. All changes will be seen only by you. Learn more »
launch autoscroll
font size
0
reset
guitar tuner
backing track
0:00
0:00
edit
Autoscroll
slow
fast
+/-
esc
set tempo
stop
Song: BYOB
Artist: System of a Down
Tabbed by The Standardnist

i have always hated tabs that were not in standared tunings so i decided to write
this in standered it might be harder but i like it.


RIFF 1
G|----------------------------------------------------------------|
D|----------------------------------------------------------------|
A|--------------------------------------------------------8--9-11-|
E|--------4------5------4-----5------4--------4------5------------|
B|2-2-2-----2-2----2-2----2-2---2-2----2-2-2----2-2----2-2--------|

G|----------------------------------------------------------------|
D|----------------------------------------------------------------|
A|-------------------------------------------------------11-9-8---|
E|--------4------5------4-----5------4--------4------5------------|
B|2-2-2-----2-2----2-2----2-2---2-2----2-2-2----2-2----2-2--------|

RIFF 2
G|----------------------------------------------------------------|
D|----------------------------------------------------------------|
A|-----------------------------------------------------9----------|
E|--4------5-------4------5------4------5--------4----------------|
B|----2-2----2-2-----22-----22-----22------2-2--------------------|

G|----------------------------------------------------------------|
D|----------------------------------------------------------------|
A|----------------------------------------------------------------| Repeat
E|--4-------5------4------5--------11--9--8-----------------------|
B|-----2-2----2-2----2-2----2-2-----------------------------------|

RIFF 3
G|-----------------------------------------------------------------|
D|-----------------------------------------------------------------|
A|-----------------------------------------------------------------|
E|--4------5------4------5-------4------5-------4------5-----------|
B|----2-2----2-2----2-2----2-2-----2-2----2-2-----2-2-----2-2------|

G|-----------------------------------------------------------------|
D|-----------------------------------------------------------------|
A|---------------------------------------------------9-------------|
E|--4------5------4------5------4------5-------4-------------------|
B|----2-2----2-2----2-2----2-2----2-2----2-2-----------------------|

G|-----------------------------------------------------------------|
D|-----------------------------------------------------------------|
A|-----------------------------------------------------------------|
E|--4------5------4------5-------4------5-------4------5-----------|
B|----2-2----2-2----2-2-----2-2-----2-2----2-2----2-2----2-2-------|

G|-------------------------------------------------------------------|
D|-------------------------------------------------------------------|
A|-------------------------------------------------------------------|
E|--4------5------4------5-------2-0----0----------------------------|
B|----2-2----2-2----2-2----2-2--------4-----4------------------------|

PRE-CHORUS
G|-----------------------------------------------------------------|
D|------------------------------------------------4-3-1------------|
A|-----------------------------------4-4-1-4-1---------------------|
E|----------------0--2--0--------------------------------0---------|
B|--2--2--2--4------------4--2--4---------------------------4------|

G|-----------------------------------------------------------------|
D|-----------------------------------------------------------------|
A|-----------------------------------------------------------------|
E|------------2-4-5-4-2-0-2-0--------------------------------------|
B|--2--2--2----------------------4---------------------------------|

CHORUS
G|------------------------------------------------------------------|
D|------------------------------------------------------------------|
A|-----------------------------4-4-4--4--4-4------------------------|
E|------------------------------------------------------------------|
B|-2-2-2---2---2-2--2-2-2-------------------------------------------|

G|------------------------------------------------------------------|
D|------------------------------------------------------------------|
A|------------------------------------------------------------------|Repeat
E|------------------2-4-5-4-2-0-2-0---------------------------------|
B|--2-2-2---2-------------------------4-----------------------------|

RIFF 3
G|------------------------------------------------------------------|
D|------------------------------------------------------------------|
A|------------------------------------------------------------------|
E|--4------5------4------5-------4------5-------4------5------------|
B|----2-2----2-2----2-2----2-2-----2-2----2-2-----2-2----2-2--------|

G|------------------------------------------------------------------|
D|------------------------------------------------------------------|
A|---------------------------------------------------9--------------|
E|--4------5------4------5------4------5-------4--------------------|
B|----2-2----2-2---2-2-----2-2----2-2-----2-2-----------------------|

G|------------------------------------------------------------------|
D|------------------------------------------------------------------|
A|------------------------------------------------------------------|
E|--4------5------4------5-------4------5-------4------5------------|
B|----2-2----2-2----2-2----2-2-----2-2----2-2-----2-2----2-2--------|

G|------------------------------------------------------------------|
D|------------------------------------------------------------------|
A|------------------------------------------------------------------|
E|--4------5------4------5-------2-0----0---------------------------|
B|----2-2----2-2----2-2----2-2-------4----4-------------------------|

RIFF 2
G|------------------------------------------------------------------|
D|------------------------------------------------------------------|
A|-----------------------------------------------------9------------|
E|--4------5-------4------5------4------5--------4------------------|
B|----2-2----2-2-----2-2----2-2----2-2----2-2-----------------------|

G|------------------------------------------------------------------|
D|------------------------------------------------------------------|
A|------------------------------------------------------------------| Repeat
E|--4-------5------4------5--------11--9--8-------------------------|
B|-----2-2----2-2----2-2----2-2-------------------------------------|

PRE-CHORUS
G|------------------------------------------------------------------|
D|------------------------------------------------4-3-1-------------|
A|-----------------------------------4-4-1-4-1----------------------|
E|----------------0--2--0--------------------------------0----------|
B|--2--2--2--4------------4--2--4---------------------------4-------|

G|------------------------------------------------------------------|
D|------------------------------------------------------------------|
A|------------------------------------------------------------------|
E|------------2-4-5-4-2-0-2-0---------------------------------------|
B|--2--2--2----------------------4----------------------------------|

CHORUS
G|------------------------------------------------------------------|
D|------------------------------------------------------------------|
A|-----------------------------4-4-4--4--4-4------------------------|
E|------------------------------------------------------------------|
B|-2-2-2---2---2-2--2-2-2-------------------------------------------|

G|------------------------------------------------------------------|
D|------------------------------------------------------------------|
A|------------------------------------------------------------------| Repeat
E|------------------2-4-5-4-2-0-2-0---------------------------------|
B|--2-2-2---2-------------------------4-----------------------------|

RIFF 4
G|-------------------------------------------------------------------------|
D|-------------------------------------------------------------------------|
A|-----------------------------------------------------------------Repeat--| 8x
E|-2-2-2-2-2-2-2-2-5-2-2-3-2-2-0-------------------------------------------|
B|-------------------------------------------------------------------------|

RIFF 5
G|-----------------------------------------------------------------|
D|-------------------------------3------4------3-------------------|
A|-6-6-6-6-2-2-2-2-1-1-1-1---1-1---1-1---1-1-----------------------|Repeat 3x
E|-----------------------------------------------------------------|
B|-----------------------------------------------------------------|

RIFF 6
G|-----------------------------------------------------------------|
D|------------------------3------4-------3-------------------------|
A|-1-1-1-1-1-1-1-1----1-1----1-1---1-1-----------------------------|Repeat 3x
E|-----------------------------------------------------------------|
B|-----------------------------------------------------------------|

RIFF 3
G|-----------------------------------------------------------------|
D|-----------------------------------------------------------------|
A|-----------------------------------------------------------------|
E|--4------5------4------5-------4------5-------4------5-----------|
B|----2-2----2-2----2-2----2-2-----2-2----2-2-----2-2----2-2-------|

G|-----------------------------------------------------------------|
D|-----------------------------------------------------------------|
A|---------------------------------------------------9-------------|
E|--4------5------4------5------4------5-------4-------------------|
B|----2-2----2-2----2-2----2-2----2-2----2-2-----------------------|

G|-----------------------------------------------------------------|
D|-----------------------------------------------------------------|
A|-----------------------------------------------------------------|
E|--4------5------4------5-------4------5-------4------5-----------|
B|----2-2----2-2----2-2----2-2-----2-2----2-2-----2-2----2-2-------|

G|-----------------------------------------------------------------|
D|-----------------------------------------------------------------|
A|-----------------------------------------------------------------|
E|--4------5------4------5-------2-0----0--------------------------|
B|----2-2----2-2----2-2----2-2-------4----4------------------------|

RIFF 2
G|-----------------------------------------------------------------|
D|-----------------------------------------------------------------|
A|-----------------------------------------------------9-----------|
E|--4------5-------4------5------4------5--------4-----------------|
B|----2-2----2-2-----22-----22-----22------2-2---------------------|

G|-----------------------------------------------------------------|
D|-----------------------------------------------------------------|
A|-----------------------------------------------------------------|Repeat
E|--4-------5------4------5--------11--9--8------------------------|
B|----2-2----2-2----2-2----2-2-------------------------------------|

PRE-CHORUS
G|------------------------------------------------------------------|
D|------------------------------------------------4-3-1-------------|
A|-----------------------------------4-4-1-4-1----------------------|
E|----------------0--2--0--------------------------------0----------|
B|--2--2--2--4------------4--2--4--------------------------4--------|

G|------------------------------------------------------------------|
D|------------------------------------------------------------------|
A|------------------------------------------------------------------|
E|------------2-4-5-4-2-0-2-0---------------------------------------|
B|--2--2--2----------------------4----------------------------------|

CHORUS
G|-------------------------------------------------------------------|
D|-------------------------------------------------------------------|
A|-----------------------------4-4-4--4--4-4-------------------------|
E|-------------------------------------------------------------------|
B|-2-2-2---2---2-2--2-2-2--------------------------------------------|

G|-------------------------------------------------------------------|
D|-------------------------------------------------------------------|
A|-------------------------------------------------------------------|Repeat
E|------------------2-4-5-4-2-0-2-0----------------------------------|
B|--2-2-2---2-------------------------4------------------------------|

RIFF 5
G|-------------------------------------------------------------------------|
D|-------------------------------3-----4-----3-----------------------------|
A|-6-6-6-6-2-2-2-2-1-1-1-1---1-1---1-1---1-1---------------------- Repeat--| 3x
E|-------------------------------------------------------------------------|
B|-------------------------------------------------------------------------|

RIFF 6
G|-------------------------------------------------------------------------|
D|------------------------3------4-------3---------------------------------|
A|-1-1-1-1-1-1-1-1----1-1----1-1---1-1---------------------------- Repeat--| 3x
E|-------------------------------------------------------------------------|
B|-------------------------------------------------------------------------|

Riff 7
G|------------------------------------------------------------------------|
D|-----------3-----------------------3------4-------3---------------------|
A|-1-1-1-1----1-1-1-1-1-1-1-1----1-1----1-1-----1---------------- Repeat--| 4x
E|------------------------------------------------------------------------|
B|------------------------------------------------------------------------|

            
            
Suggest correction
Creating personal tab
Creating personal tab
You can edit any tab online and save it as your Personal.

You can edit, replace or remove any tab part or add personal notes – all changes will be seen only by you.

Personal tabs can be accessed anytime from any device, even offline.
Learn more »
Give kudos to tab author, rate the tab!
1 2 3 4 5
comments
print report bad tab
2 comments total.
0 reply
Beato413 278 Jun 30, 2009 03:36 PM

I have no idea what you're doing. Shavo plays a four string bass, not a five string!

0 reply
rmt09 52 Dec 31, 2009 05:31 PM

WWWWWWWWWWHHHHHHHHAAAAAAAAAA i rate tabs to this day

This dumb tab - 10 (your tab being the lowest)

this wil make it easier..... ( negative 3-10)

X X X X
X X X X
X X X X
X X
X X X X
X X X X
X X X X

XXXXXXXXXXXXXXXXXX
X X
X X
XXXX XXXX
X X
X X XX
X X XX
X X XXXXXXXXXXXXX BEASTMODE
XXXXXXXX XX
XX

guest
Wanna post a correction for this tab? Suggest correction