Oops, an error
Loading. Please wait.
We have an official Deer Dance tab made by UG professional guitarists. Check out the tab »
×
9,837 views 27 this week
1 commentread comment
1 2 3 4 5
x 9
add to favorites
×
Save as Personal and add changes to this tab that will be seen only by you. Learn more ›
×
You can save this tab as Personal to edit and correct it or add notes. All changes will be seen only by you. Learn more »
launch autoscroll
font size
0
reset
how to read this tab
guitar tuner
backing track
0:00
0:00
edit
Autoscroll
slow
fast
+/-
esc
set tempo
stop
Author
Artist: System of a Down
Album: Toxicity (2001)
Track: 3
Song: Deer Dance

Tuning: CGCFAD (Drop D & Full Step Down)

Words and Music by System of a Down

Transcribed by Kyle Mayer

this is a really fun song to play ENJOY!!!!!!:(:
         !ntro/Chorus 1

    Gtr I
||-----------------|-----------------||
||o----------------|----------------o||
||-----------------|-----------------||
||-----------------|-----------------||
||o-1p0-1p0-1p0-1--|-1p0-1p0-1p0-1--o||
||--1p0-1p0-1p0-1--|-1p0-1p0-1p0-1---||


  PM-----------------------------------------------------------------|
|-----------------|-----------------|----------------|----------------||
|-----------------|-----------------|----------------|----------------||
|-----------------|-----------------|----------------|----------------||
|-----------------|-----------------|----------------|----------------||
|-1-0-1-0-1-0-1-0-|-1-0-1-0-1-0-1-0-|-1-0-1-0-1-0-1--|-1-0-1-0-1-0-1--||
|-1-0-1-0-1-0-1-0-|-1-0-1-0-1-0-1-0-|-1-0-1-0-1-0-1--|-1-0-1-0-1-0-1--||


   Verse 1 and 2
                                                                       3x
||------------------|---------10----|-----------------|---------10-----||
||o-----------------|---------------|-----------------|---------------o||
||------------------|---------------|-----------------|----------------||
||------------------|---------------|-----------------|----------------||
||o-----------------|---------------|-----------------|---------------o||
||--5/--8\--3/--7\--|-1/--5\--------|-5/--8\--3/--7\--|-1/--5\---------||


   Pre-Chorus 1 and 2
    PM--------------------------------------------------------------|
||----------------------------------|----------------------------------|
||o---------------------------------|----------------------------------|
||----------------------------------|----------------------------------|
||----------------------------------|----------------------------------|
||o---------------------------------|----------------------------------|
||--5-5-5-5-8-8-8-8-3-3-3-3-7-7-7-7-|-1-1-1-1-5-5-5-5-0-0-0-0-0-0-0-0--|


                                                           D.S.
  PM----------------------------------------------|
|---------------------------------|-----------------10-----------||
|---------------------------------|-----------------------------o||
|---------------------------------|------------------------------||
|---------------------------------|------------------------------||
|---------------------------------|-----------------------------o||
|-5-5-5-5-8-8-8-8-3-3-3-3-7-7-7-7-|-1-1-1-1-5-5-5-5--------------||


   Chorus 2
||-----------------|-----------------||
||o----------------|----------------o||
||-----------------|-----------------||
||-----------------|-----------------||
||o-1p0-1p0-1p0-1--|-1p0-1p0-1p0-1--o||
||--1p0-1p0-1p0-1--|-1p0-1p0-1p0-1---||


  PM-----------------------------------------------------------------|
|-----------------|-----------------|----------------|----------------||
|-----------------|-----------------|----------------|----------------||
|-----------------|-----------------|----------------|----------------||
|-----------------|-----------------|----------------|----------------||
|-1-0-1-0-1-0-1-0-|-1-0-1-0-1-0-1-0-|-1-0-1-0-1-0-1--|-1-0-1-0-1-0-1--||
|-1-0-1-0-1-0-1-0-|-1-0-1-0-1-0-1-0-|-1-0-1-0-1-0-1--|-1-0-1-0-1-0-1--||


 Bass Interlude
|-----|
|-----|
|-----|
|-----|
|-----|
|-----|


   Guitar Solo
     PM------------------------------------------------
||--------------------------|-------------------------|
||o-------------13----------|-------------13----------|
||--15-14----------15-14----|-15-14----------15-14----|
||--------15-12----------15-|-------15-12----------15-|
||o-------------------------|-------------------------|
||--------------------------|-------------------------|


 ------------------------------------------------|
|-------------------------|---------------------------||
|-------------13----------|-------------13-----------o||
|-15-14----------15-14----|-15-14----------15-14------||
|-------15-12----------15-|-------15-12----------15---||
|-------------------------|--------------------------o||
|-------------------------|---------------------------||


|-------------------|-------------------------|
|-------------------|-------------13----------|
|-15-14-12----15----|-15-14----------15-14----|
|-------12-------12-|-------15-12----------15-|
|-------------------|-------------------------|
|-------------------|-------------------------|


|-------------------------|---------------------|
|-------------------------|---------------------|
|-15-15-15-15-15S17-17-17-|-17S19-19-20-19-17---|
|-12-12-------------------|---------------------|
|-------------------------|---------------------|
|-------------------------|---------------------|


|-----------------------|-------------------------|
|-----------------------|-13----------------------|
|-14-14-14-15--14-------|----15-14----15-14-------|
|-----------------15-12-|----------15-------15-12-|
|-----------------------|-------------------------|
|-----------------------|-------------------------|


|-------------------------|-------------------------|
|-13----------------------|-13----------------------|
|----15-14----15-14-------|----15-14----15-14-------|
|----------15-------15-12-|----------15-------15-12-|
|-------------------------|-------------------------|
|-------------------------|-------------------------|


|-------------------|-------------------------|
|-------------------|-------------13----------|
|-15-14-12----15----|-15-14----------15-14----|
|-------12-------12-|-------15-12----------15-|
|-------------------|-------------------------|
|-------------------|-------------------------|


|-------------------------|---------------------|
|-------------------------|---------------------|
|-15-15-15-15-15S17-17-17-|-17S19-19-20--19-17--|
|-12-12-------------------|---------------------|
|-------------------------|---------------------|
|-------------------------|---------------------|


|---------------------|---------------------------|
|---------------------|---------------13----------|
|-14-14-14-15--14--15-|-(15)-14----------15-14----|
|---------------------|---------15-12----------15-|
|---------------------|---------------------------|
|---------------------|---------------------------|


|-------------------------|-------------------------|
|-------------------------|-------------------------|
|-15-15-15-14-14-14-15-15-|-15-15-15-14-14-14-15-15-|
|-12-12-12-12-12-12-12-12-|-12-12-12-12-12-12-12-12-|
|-------------------------|-------------------------|
|-------------------------|-------------------------|


|-------------------------|-------------------------|
|-------------------------|-------------------------|
|-15-15-15-14-14-14-15-15-|-15-15-15-14-14-14-15-15-|
|-12-12-12-12-12-12-12-12-|-12-12-12-12-12-12-12-12-|
|-------------------------|-------------------------|
|-------------------------|-------------------------|


|-------------------------|-------------------------||
|-------------------------|-------------------------||
|-15-15-15-14-14-14-15-15-|-15-15-15-14-14-14-15-15-||
|-12-12-12-12-12-12-12-12-|-12-12-12-12-12-12-12-12-||
|-------------------------|-------------------------||
|-------------------------|-------------------------||


 Vocal Interlude
|-----|
|-----|
|-----|
|-----|
|-----|
|-----|


   Chorus 3
||-----------------|-----------------||
||o----------------|----------------o||
||-----------------|-----------------||
||-----------------|-----------------||
||o-1p0-1p0-1p0-1--|-1p0-1p0-1p0-1--o||
||--1p0-1p0-1p0-1--|-1p0-1p0-1p0-1---||


  PM-----------------------------------------------------------------|
|-----------------|-----------------|----------------|----------------|
|-----------------|-----------------|----------------|----------------|
|-----------------|-----------------|----------------|----------------|
|-----------------|-----------------|----------------|----------------|
|-1-0-1-0-1-0-1-0-|-1-0-1-0-1-0-1-0-|-1-0-1-0-1-0-1--|-1-0-1-0-1-0-1--|
|-1-0-1-0-1-0-1-0-|-1-0-1-0-1-0-1-0-|-1-0-1-0-1-0-1--|-1-0-1-0-1-0-1--|


   Outro
    PM-----------------------------------------------------------------|
||------------------|----------------|-----------------|------------------||
||o-----------------|----------------|-----------------|-----------------o||
||------------------|----------------|-----------------|------------------||
||------------------|----------------|-----------------|------------------||
||o-1-0-1-0-1-0-1-0-|-1-0-1-0-1-0-1--|-1-0-1-0-1-0-1-0-|-1-0-1-0-1-0-1---o||
||--1-0-1-0-1-0-1-0-|-1-0-1-0-1-0-1--|-1-0-1-0-1-0-1-0-|-1-0-1-0-1-0-1----||

            
            
Suggest correction
Creating personal tab
Creating personal tab
You can edit any tab online and save it as your Personal.

You can edit, replace or remove any tab part or add personal notes – all changes will be seen only by you.

Personal tabs can be accessed anytime from any device, even offline.
Learn more »
comments
print report bad tab
1 comment total.
0 reply
Adonis102 10 Apr 27, 2010 06:05 PM

This Is Wrong It's Supposed To Be Like This On The Solo/Bridge
|-6-5-------8-6-5----|
|----6-----------6---|
|-----7--------------|
|--------------------|
|--------------------|
|--------------------|x8

|-6-5----------------|
|----8*--------------|
|--------------------|
|--------------------|
|--------------------|
|--------------------|

|------6666--8888--8-10-10-10-11-10-8-5555--------|
|-8888--------------------------------------------|
|-------------------------------------------------|
|-------------------------------------------------|
|-------------------------------------------------|
|-------------------------------------------------|

|-6-5-------8-6-5----|
|----6-----------6---|
|-----7--------------|
|--------------------|
|--------------------|
|--------------------|x3

|-6-5----------------|
|----8*--------------|
|--------------------|
|--------------------|
|--------------------|
|--------------------|

|------6666--8888--8-10-10-10-11-10-8-5556-5-6----|
|-8888--------------------------------------------|
|-------------------------------------------------|
|-------------------------------------------------|
|-------------------------------------------------|
|-------------------------------------------------|

|-6-5-------|
|----6------|
|-----7-----|
|-----------|
|-----------|
|-----------|

|5----|
|-----|
|-----|
|-----|
|-----|
|-----| Play This Repeatedly

guest
You may want to rate the tab now too:
select rating
Wanna post a correction for this tab? Suggest correction