Oops, an error
Loading. Please wait.
We have an official Ego Brain tab made by UG professional guitarists. Check out the tab »
×
1,392 views 1 this week
no commentswrite comment
1 2 3 4 5
3 more votes to show rating
add to favorites
×
Save as Personal and add changes to this tab that will be seen only by you. Learn more ›
×
You can save this tab as Personal to edit and correct it or add notes. All changes will be seen only by you. Learn more »
launch autoscroll
font size
0
reset
guitar tuner
edit
Autoscroll
slow
fast
+/-
esc
set tempo
stop
Band - System Of A Down
Song - Ego Brain
Tuning - C G C F

   I really like this song. I love the guitars used in the verses, and I like how heavy 
chorus gets. I created this tab because I didn't like the format of the other one - what 
the order being listed at the bottom.

Guitar intro. [0:00 - 0:22]

   VERSE x1 [0:22 - 0:37]
F  --------------------------------------------------------------------------|
C  -------------------------------------------5------------------------------|
G  ---7-----0-----7-----0-----7-----0-----------------------------7----0---7-|
C  ----------------------------------------------------5---7-----------------|

   PRE CHORUS x1 [0:37 - 0:49]
F  -------------------------------------------------------------------------|
C  -------------------------------------------------------------------------|
G  -------------------------------------------------------------------------|
C  --5--5--7-----3---3-3---3-3---3-3---3---2---2-2---2-2---2-2---2----------|

F  -------------------------------------------------------------------------|
C  -------------------------------------------------------------------------|
G  -------------------------------------------------------------------------|
C  --3---3-3---3-----5-5-7-7----2---2-2---2---222222------------------------|

   CHORUS x2 [0:50 - 1:11]
F  ------------------------------------------|
C  ------------------------------------------|
G  ---7h8p7--3--3-5-3------7h8p7--3--3-5-3---|
C  2--------------------2--------------------|


F  ------------------------------------------------------------------|
C  ------------------------------------------------------------------|
G  ---8--10--7----10h12p10---8-10-8-7------7h8p7----3--3-5-3---------|
C  3------------------------------------2----------------------------|

   VERSE x1 [1:12 - 1:26]
F  --------------------------------------------------------------------------|
C  -------------------------------------------5------------------------------|
G  ---7-----0-----7-----0-----7-----0-----------------------------7----0---7-|
C  ----------------------------------------------------5---7-----------------|

   PRE CHORUS x1 [1:27 - 1:39]
F  -------------------------------------------------------------------------|
C  -------------------------------------------------------------------------|
G  -------------------------------------------------------------------------|
C  --5--5--7-----3---3-3---3-3---3-3---3---2---2-2---2-2---2-2---2----------|

F  -------------------------------------------------------------------------|
C  -------------------------------------------------------------------------|
G  -------------------------------------------------------------------------|
C  --3---3-3---3-----5-5-7-7----2---2-2---2---222222------------------------|

   CHORUS x2 [1:40 - 2:01]
F  ------------------------------------------|
C  ------------------------------------------|
G  ---7h8p7--3--3-5-3------7h8p7--3--3-5-3---|
C  2--------------------2--------------------|


F  ------------------------------------------------------------------|
C  ------------------------------------------------------------------|
G  ---8--10--7----10h12p10---8-10-8-7------7h8p7----3--3-5-3---------|
C  3------------------------------------2----------------------------|


   MODIFIED VERSE x1 [2:02 - 2:12]
F  -------------------------------------------------------------------------|
C  -------------------------------------------5-----------------------------|
G  ---7-----0-----7-----0-----7-----0---------------------------------------|
C  ----------------------------------------------------5---7----------------|

   VERSE x1 [2:13 - 2:27]
F  --------------------------------------------------------------------------|
C  -------------------------------------------5------------------------------|
G  ---7-----0-----7-----0-----7-----0-----------------------------7----0---7-|
C  ----------------------------------------------------5---7-----------------|

   PRE CHORUS x1 [2:28 - 2:40]
F  -------------------------------------------------------------------------|
C  -------------------------------------------------------------------------|
G  -------------------------------------------------------------------------|
C  --5--5--7-----3---3-3---3-3---3-3---3---2---2-2---2-2---2-2---2----------|

F  -------------------------------------------------------------------------|
C  -------------------------------------------------------------------------|
G  -------------------------------------------------------------------------|
C  --3---3-3---3-----5-5-7-7----2---2-2---2---222222------------------------|

   CHORUS x2 [2:41 - 3:02]
F  ------------------------------------------|
C  ------------------------------------------|
G  ---7h8p7--3--3-5-3------7h8p7--3--3-5-3---|
C  2--------------------2--------------------|


F  ------------------------------------------------------------------|
C  ------------------------------------------------------------------|
G  ---8--10--7----10h12p10---8-10-8-7------7h8p7----3--3-5-3---------|
C  3------------------------------------2----------------------------|


   OUTRO x1 [3:03 - 3:14]   *Play this a little slower than the verses*
F  -------------------------------------------------------------------------|
C  -------------------------------------------5-----------------------------|
G  ---7-----0-----7-----0-----7-----0--------------------------7------------|
C  ----------------------------------------------------5---7----------------|

   [3:15 - 3:23] Notes ringing.


   There it is. I hope you like the way it is set up like I do. Rate it!

            
            
Suggest correction
Creating personal tab
Creating personal tab
You can edit any tab online and save it as your Personal.

You can edit, replace or remove any tab part or add personal notes – all changes will be seen only by you.

Personal tabs can be accessed anytime from any device, even offline.
Learn more »
Give kudos to tab author, rate the tab!
1 2 3 4 5
comments
print report bad tab
guest
You may want to rate the tab now too:
select rating
Wanna post a correction for this tab? Suggest correction