Oops, an error
Loading. Please wait.
We have an official Forest tab made by UG professional guitarists. Check out the tab »
×
12,489 views 15 this week
2 commentsread comments
1 2 3 4 5
x 9
add to favorites
×
Save as Personal and add changes to this tab that will be seen only by you. Learn more ›
×
You can save this tab as Personal to edit and correct it or add notes. All changes will be seen only by you. Learn more »
launch autoscroll
font size
0
reset
guitar tuner
edit
Autoscroll
slow
fast
+/-
esc
set tempo
stop
system of a down- forest
tabbed by: maryanne huckins
proof read: erik nelson

Tuning low to high: CGCF

all measures divided into 16 parts to emulate 16th notes. the rythym is there, just look
it. Triplets in the chorus are not marked and they are the exception.


Intro
F|7---7---7---7---|8---8---8---8---|9---9---9---9---|10--10--10--10--|
C|----------------|----------------|----------------|----------------|
G|----------------|----------------|----------------|----------------|
C|----------------|----------------|----------------|----------------| x2


Bridge- first open, second muted.
|----------------|----------------|----------------|----------------|
|----------------|----------------|----------------|----------------|
|----------------|----------------|----------------|----------------|
|0--06/4-0--06/4-|0--06/4-0--06/4-|0--04/6-0--04/6-|0--04/6-0--04/6-| x2


Verse                              mute
|----------------|----------------|----------------|----------------|
|----------------|----------------|----------------|----------------|
|5---5---5---5---|6---6---6---6---|----------------|----------------|
|----------------|----------------|0--06/4-0--06/4-|0--06/4-0--06/4-|

                                   mute
|----------------|----------------|----------------|----------------|
|----------------|----------------|----------------|----------------|
|6---6---6---6---|7---7---7---7---|----------------|----------------|
|----------------|----------------|0--04/6-0--04/6-|0--04/6-0--04/6-|

                                   mute
|----------------|----------------|----------------|----------------|
|----------------|----------------|----------------|----------------|
|5---5---5---5---|6---6---6---6---|----------------|----------------|
|----------------|----------------|0--06/4-0--06/4-|0--06/4-0--06/4-|


|----------------|----------------|----------------|----------------|
|----------------|----------------|----------------|----------------|
|6---6---6---6---|7---7---7---7---|8---8---8---8---|9---9---9---9---|
|----------------|----------------|----------------|----------------|


|----------------|----------------|----------------|
|----------------|----------------|----------------|
|6---6---6---6---|7---7---7---7---|8---8---8---8---|
|----------------|----------------|----------------|


Chorus
|----------------|----------------|----------------|----------------|
|----------------|----------------|----------------|----------------|
|----------------|----------------|----------------|----------------|
|-8-10-8--7-5-4--|0---0---------0-|1-------------1-|4---------------| x4


Fill
|----------------|
|----------------|
|----------------|
|-8-10-8--7-5-4--| x1


Bridge- open
|----------------|----------------|----------------|----------------|
|----------------|----------------|----------------|----------------|
|----------------|----------------|----------------|----------------|
|0--06/4-0--06/4-|0--06/4-0--06/4-|0--04/6-0--04/6-|0--04/6-0--04/6-| x1


Verse                              mute
|----------------|----------------|----------------|----------------|
|----------------|----------------|----------------|----------------|
|5---5---5---5---|6---6---6---6---|----------------|----------------|
|----------------|----------------|0--06/4-0--06/4-|0--06/4-0--06/4-|

                                   mute
|----------------|----------------|----------------|----------------|
|----------------|----------------|----------------|----------------|
|6---6---6---6---|7---7---7---7---|----------------|----------------|
|----------------|----------------|0--04/6-0--04/6-|0--04/6-0--04/6-|

                                   mute
|----------------|----------------|----------------|----------------|
|----------------|----------------|----------------|----------------|
|5---5---5---5---|6---6---6---6---|----------------|----------------|
|----------------|----------------|0--06/4-0--06/4-|0--06/4-0--06/4-|


|----------------|----------------|----------------|----------------|
|----------------|----------------|----------------|----------------|
|6---6---6---6---|7---7---7---7---|8---8---8---8---|9---9---9---9---|
|----------------|----------------|----------------|----------------|


|----------------|----------------|----------------|
|----------------|----------------|----------------|
|6---6---6---6---|7---7---7---7---|8---8---8---8---|
|----------------|----------------|----------------| x1


Chorus
|----------------|----------------|----------------|----------------|
|----------------|----------------|----------------|----------------|
|----------------|----------------|----------------|----------------|
|-8-10-8--7-5-4--|0---0---------0-|1-------------1-|4---------------| x4


Verse 2
|----------------|----------------|----------------|
|----------------|----------------|----------------|
|----------------|----------------|----------------|
|--8-8-8--8-7-5--|--8-8-8--8-7-5--|--8-8-8--8-7-5--| x1


Bridge- muted
|----------------|----------------|----------------|----------------|
|----------------|----------------|----------------|----------------|
|----------------|----------------|----------------|----------------|
|0--06/4-0--06/4-|0--06/4-0--06/4-|0--04/6-0--04/6-|0--04/6-0--04/6-| x1


Verse 3                            mute
|----------------|----------------|----------------|----------------|
|----------------|----------------|----------------|----------------|
|----------------|--6-6-6--6-5----|----------------|----------------|
|--8-8-8--8-7-6--|-------------8--|0--06/4-0--06/4-|0--06/4-0--06/4-| x1


Verse 4
|----------------|----------------|----------------|
|----------------|----------------|----------------|
|----------------|--6-6-6--6-5----|----------------|
|--8-8-8--8-7-5--|-------------8--|--8-8-8--8-6-5--|

 mute
|----------------|----------------|
|----------------|----------------|
|----------------|----------------|
|0--06/4-0--06/4-|0--06/4-0--06/4-| x1


Verse 5
|----------------|----------------|----------------|-----------------|
|----------------|----------------|----------------|-----------------|
|--8-8-8--8-6-5--|10-10-10--10-8-6|11-11-11-11-10-8|13-13-13-13-11-10|
|----------------|----------------|----------------|-----------------| x1


Verse 6
|----------------|----------------|----------------|----------------|
|----------------|----------------|----------------|----------------|
|----------------|----------------|----------------|----------------|
|0—-00—-00—-01---|0—-00—-00—-01---|0—-00—-00—-01---|0—-00—-00—-01---| x1


Bridge 2
|----------------|----------------|----------------|----------------|
|----------------|----------------|----------------|----------------|
|----------------|----------------|----------------|----------------|
|5-0-5-0-5-0-5-0-|6-0-6-0-6-0-6-0-|7-0-7-0-7-0-7-0-|8-0-8-0-8-0-8-0-| x3


Bridge 2 vary
|----------------|----------------|----------------|
|----------------|----------------|----------------|
|----------------|----------------|----------------|
|5-0-5-0-5-0-5-0-|6-0-6-0-6-0-6-0-|7-0-7-0-7-0-7-0-| x1


Chorus
|----------------|----------------|----------------|----------------|
|----------------|----------------|----------------|----------------|
|----------------|----------------|----------------|----------------|
|-8-10-8--7-5-4--|0---0---------0-|1-------------1-|4---------------| x2


Chorus vary/outro
|----------------|----------------|----------------|----------------|
|----------------|----------------|----------------|----------------|
|----------------|----------------|----------------|----------------|
|-8-10-8--7-5-4--|0—-00—-00—-00---|1--11--11--11---|5--55--55--55---|


|----------------|----------------|----------------|----------------|
|----------------|----------------|----------------|----------------|
|----------------|----------------|----------------|----------------|
|----------------|0—-00—-00—-00---|1--11--11--11---|5--55--55--55---|


|----------------|----------------||
|----------------|----------------||
|----------------|----------------||
|-8-10-8--7-5-4--|0---------------||

The lines are blocks of 4, for two reasons. First, the phrases are for the most part in
of 4. Second, I write in 8 measure phrases on a landscape layout but ultimate-guitar
allow the space, and that is also the reason the tabs will be written verse to verse 
instead of my standard way. I apologize now, I dislike reading tabs as shown below, but it
the simplist way for it to be done.

If you would enjoy the full version, my email is mhuckins@gmail.com, I would gladly
you a copy.

            
            
Suggest correction
Creating personal tab
Creating personal tab
You can edit any tab online and save it as your Personal.

You can edit, replace or remove any tab part or add personal notes – all changes will be seen only by you.

Personal tabs can be accessed anytime from any device, even offline.
Learn more »
comments
print report bad tab
2 comments total.
0 reply
Fred026 10 Mar 15, 2011 11:15 AM

Hello!
I'm sure the last note of the chorus must be in fret 5 on the C-String and I think in Bridge 2 everything's gotta be played on the Gtring!
btw good tab!

0 reply
Fred026 10 Mar 15, 2011 11:57 AM

I also play verse 6 with 0's instead of 1's.
In my opinion, the 6th note in verse 3 is a 5.
In verse 4 the last 6 notes must be played on the G-string.
And why is the 8-10-8-7-5-4 section missing once in the outro??

guest
You may want to rate the tab now too:
select rating
Wanna post a correction for this tab? Suggest correction