Oops, an error
Loading. Please wait.
We have an official Kill Rock N Roll tab made by UG professional guitarists. Check out the tab »
×
5,961 views 9 this week
4 commentsread comments
1 2 3 4 5
x 7
add to favorites
×
Save as Personal and add changes to this tab that will be seen only by you. Learn more ›
×
You can save this tab as Personal to edit and correct it or add notes. All changes will be seen only by you. Learn more »
launch autoscroll
font size
0
reset
how to read this tab
guitar tuner
backing track
0:00
0:00
edit
Autoscroll
slow
fast
+/-
esc
set tempo
stop
Author
Difficulty
-------------------------------------------------------------------------------
                             Kill Rock 'N Roll - System of A Down
-------------------------------------------------------------------------------
Tabbed by: GuYnAa
Email: guynaa@yahoo.com

Tuning: Drop d down half tone

Intro

d#|---------------------------------------------------------------------------|
a#|---------------------------------------------------------------------------|
f#|---------------------------------------------------------------------------|
c#|--10-10-10-10-10-10-10-10-10-10-10-10-10-10-10-10--------------------------|
g#|-8--8--8--8--8--8--8--8--0--0--0--0--0--0--0--0----------------------------|
c#|---------------------------------------------------------------------------|

d#|---------------------------------------------------------------------------|
a#|---------------------------------------------------------------------------|
f#|---------------------------------------------------------------------------|
c#|--9-9-9-9-9-9-9-9----------------------------------------------------------|
g#|-7-7-7-7-8-8-8-8-----------------------------------------------------------|
c#|---------------------------------------------------------------------------|


Verses

d#|---------------------------------------------------------------------------|
a#|---------------------------------------------------------------------------|
f#|--------5----------4----2--------------------------------------------------|
c#|---3----5----2-----4----2--------------------------------------------------|
g#|---3----3-33-2-----2-22-0--------------------------------------------------|
c#|---3-33------2-2-2---------------------------------------------------------|


Chorus

d#|---------------------------------------------------------------------------|
a#|---------------------------------------------------------------------------|
f#|---------------------------------------------------------------------------|
c#|-----10-10-10--7-7-7-9-9-9-9-9-9-9-9---------------------------------------|
g#|-----8--8--8---7-7-7-7-7-7-7-8-8-8-8---------------------------------------|
c#|---------------7-7-7-------------------------------------------------------|

d#|---------------------------------------------------------------------------|
a#|---------------------------------------------------------------------------|
f#|-----3-2-------------------------------------------------------------------|
c#|--3--3-2--2-3--------------------------------------------------------------|
g#|--3--1-0--2-3--------------------------------------------------------------|
c#|--3-------2-3--------------------------------------------------------------|


Part C

d#|---------------------------------------------------------------------------|
a#|---------------------------------------------------------------------------|
f#|---------------------------------------------------------------------------|
c#|----9-10-7--------9-10-7---------7-8-5-------------------------------------|
g#|---8-8----8-7----8-8----8-7-----6-7---6-5----------------------------------|
c#|--7-------------7--------------5-------------------------------------------|

note: i did not wrote all the pickings if its repetitive so just get it by hearing (not so hard)
please comment if u want more of the news album tabs

            
            
Suggest correction
Creating personal tab
Creating personal tab
You can edit any tab online and save it as your Personal.

You can edit, replace or remove any tab part or add personal notes – all changes will be seen only by you.

Personal tabs can be accessed anytime from any device, even offline.
Learn more »
comments
print report bad tab
4 comments total. Showing first comments.
0 reply
slyo 182 Nov 25, 2005 02:56 AM

how can this have 3 stars its the only one thats right

0 reply
Gerard_grr 10 Nov 28, 2005 05:00 AM

Hey, I think this is the only one that is right, but is missing some parts but is ok, good job!

0 reply
skynyrdfreak 65 Nov 29, 2005 11:39 AM

sexy tab mister man

guest
You may want to rate the tab now too:
select rating
Wanna post a correction for this tab? Suggest correction