Oops, an error
Loading. Please wait.
We have an official Mr Jack tab made by UG professional guitarists. Check out the tab »
×
5,820 views 72 this week
19 commentsread comments
1 2 3 4 5
x 4
add to favorites
×
Save as Personal and add changes to this tab that will be seen only by you. Learn more ›
×
You can save this tab as Personal to edit and correct it or add notes. All changes will be seen only by you. Learn more »
launch autoscroll
font size
0
reset
how to read this tab
guitar tuner
edit
Autoscroll
slow
fast
+/-
esc
set tempo
stop
Author
Band: System of a Down
Song: Mr. Jack
CD: Steal this Album
Tabber: Faoak (ak_daniel@hotmail.com)
Tunning: Drop D down one step aka Drop C (CGCFAD)

Intro
Guitar 1
D --------------------------------------------------
A --------------------------------------------------
F --------------------------------------------------
C --------------------------------------------------
G ----8p7---7p5---5---5-6-5----3---3---5---5---5----
C --0------0------0---0---------0---0---0---0---0---

Guitar 2
D -----------------------------------------------------------------
A ---77777777-1010101010101010-121212121212121212-15151515-17171717
F ---77777777-1010101010101010-121212121212121212-15151515-17171717
C ---77777777-1010101010101010-121212121212121212-15151515-17171717
G -----------------------------------------------------------------
C -----------------------------------------------------------------

Pre - Verse/ Chorus

Both Guitars
D --------------------
A --------------------
F --------------------
C ---0---7\3---7h8---7
G ---0---7\3---7h8---7
C ---0---7\3---7h8---7

Verse
Both Guitars
Palm Muting
D -------------------
A -------------------
F -------------------
C -------------------
G -------------------
C ---0--7--3--7--8--7


First half of Bridge
Both Guitars
D -------------------------------------------------------
A -------------------------------------------------------
F ----10p9---9p7---7---7-8-7----5---5---7---7---7--------
C --0------0------0---0---------0---0---0---0---0--------
G -------------------------------------------------------
C -------------------------------------------------------

Second half of Bridge is....
Verse (new picking speed and power chords)
then
F ---
A ---
D ---
G -0-
C -0-
G -0-
then
Verse again (different picking speed)

check out these Alaskan Band Websites:
www.noneoftheabove.tk
www.corruptreasoning.tk
corrections or whatever, ak_daniel@hotmail.com

            
            
Suggest correction
Creating personal tab
Creating personal tab
You can edit any tab online and save it as your Personal.

You can edit, replace or remove any tab part or add personal notes – all changes will be seen only by you.

Personal tabs can be accessed anytime from any device, even offline.
Learn more »
comments
print report bad tab
19 comments total. Showing first comments.
0 reply
Faoak 75 Dec 04, 2002 07:00 PM

formating error in submitting, should be:
G ----8p7---7p5-----5---5-6-5----3---3--
C --0------0------0---0---------0---0---


5---5---5----
--0---0---0---

0 reply
Faoak 75 Dec 06, 2002 07:00 PM

f***ing formating, ok, heres the deal, none of the 0's are played at the same time as the 5s, all 0s are before fives

0 reply
Faoak 75 Dec 06, 2002 07:00 PM

f***ing formating, ok, heres the deal, none of the 0's are played at the same time as the 5s, all 0s are before fives

guest
You may want to rate the tab now too:
select rating
Wanna post a correction for this tab? Suggest correction