Oops, an error
Loading. Please wait.
We have an official Mr Jack tab made by UG professional guitarists. Check out the tab »
×
72,873 views 69 this week
16 commentsread comments
1 2 3 4 5
x 38
add to favorites
×
Save as Personal and add changes to this tab that will be seen only by you. Learn more ›
×
You can save this tab as Personal to edit and correct it or add notes. All changes will be seen only by you. Learn more »
launch autoscroll
font size
0
reset
how to read this tab
guitar tuner
edit
Autoscroll
slow
fast
+/-
esc
set tempo
stop
D|----------------------------|------------------------|
A|----------------------------|------------------------|
F|----------------------------|------------------------|
C|----------------------------|------------------------| x4
G|----8/7--7/5---5-----5-6--5-|----3--3---5-----5--6-5-|
C|-0----------------0---------|-0------------0---------|

 
D|----------------------------|------------------------|
A|----------------------------|------------------------|
F|----------------------------|------------------------|
C|----------------------------|------------------------|
G|----8/7--7/5---5-----5-6--5-|----3--3---5-----5--6-5-| x3
C|-0----------------0---------|-0------------0---------|

 
D|----------------------------|--------------|
A|----------------------------|--------------|
F|----------------------------|--------------|
C|----------------------------|--------------|
G|----8/7--7/5---5-----5-6--5-|----3--3---5--|
C|-0----------------0---------|-0------------|

 
D|-3^2-2-2-2---22-2--2-22-|-5-5-5---55-5--5-55-|-7-7-7---77-7--7-77-|-10-101010--1012-12-12-1010/|
A|-----3-3-3---33-3--3-33-|-6-6-6---66-6--6-66-|-8-8-8---88-8--8-88-|-11-111111--1111-11-11-1111/|
F|-----2-2-2---22-2--2-22-|-5-5-5---55-5--5-55-|-7-7-7---77-7--7-77-|-10-101010--1010-10-10-1010/|
C|-----0-0-0---00-0--0-00-|-0-0-0---00-0--0-00-|-0-0-0---00-0--0-00-|--0--0-0-0---0-0--0--0--0-0/|
G|------------------------|--------------------|--------------------|----------------------------|
C|------------------------|--------------------|--------------------|----------------------------|

D|-2-2-2---22-2--2-22-|-5-5-5---55-5--5-55-|-7-7-7---77-7--7-77-|-10-101010--10-12--|
A|-3-3-3---33-3--3-33-|-6-6-6---66-6--6-66-|-8-8-8---88-8--8-88-|-11-111111--11-11--|
F|-2-2-2---22-2--2-22-|-5-5-5---55-5--5-55-|-7-7-7---77-7--7-77-|-10-101010--10-10--|
C|-0-0-0---00-0--0-00-|-0-0-0---00-0--0-00-|-0-0-0---00-0--0-00-|--0--0-0-0---0--0--|
G|--------------------|--------------------|--------------------|-------------------|
C|--------------------|--------------------|--------------------|-------------------|

 
D|---------------------|---------------------|
A|---------------------|---------------------|
F|---------------------|---------------------|
C|-0---7---3---8-7-8-7-|-0---7---3---8-7-8-8-| x4
G|-0---7---3---8-7-8-7-|-0---7---3---8-7-8-8-|
C|-0---7---3---8-7-8-7-|-0---7---3---8-7-8-8-|

 
pm..................................................
D|---------------------------|-----------------------|
A|---------------------------|-----------------------|
F|---------------------------|-----------------------|
C|-0---0-7---7-3---3-8-7-8-7-|-0---7---7-3---3-8-7-8-|
G|-0---0-7---7-3---3-8-7-8-7-|-0---7---7-3---3-8-7-8-|
C|-0---0-7---7-3---3-8-7-8-7-|-0---7---7-3---3-8-7-8-|
pm.............................................
D|-----------------------|---------------------|
A|-----------------------|---------------------|
F|-----------------------|---------------------|
C|-0---7---3---3-8-7-8-7-|-0---7---3---3-8-7-8-|
G|-0---7---3---3-8-7-8-7-|-0---7---3---3-8-7-8-|
C|-0---7---3---3-8-7-8-7-|-0---7---3---3-8-7-8-|

 
pm.........................................
D|---------------------|-------------------|
A|---------------------|-------------------|
F|---------------------|-------------------|
C|-0---7---3---8-7-8-7-|-0---7---3---8-7-8-|
G|-0---7---3---8-7-8-7-|-0---7---3---8-7-8-|
C|-0---7---3---8-7-8-7-|-0---7---3---8-7-8-|

 
pm................................
D|---------------------|---------------------|
A|---------------------|---------------------|
F|---------------------|---------------------|
C|-0---7---3---8-7-8-7-|-0---7---3---8-7-8-8-|
G|-0---7---3---8-7-8-7-|-0---7---3---8-7-8-8-|
C|-0---7---3---8-7-8-7-|-0---7---3---8-7-8-8-|

 
D|---------------------|---------------------|
A|---------------------|---------------------|
F|---------------------|---------------------|
C|-0---7---3---8-7-8-7-|-0---7---3---8-7-8-8-| x4
G|-0---7---3---8-7-8-7-|-0---7---3---8-7-8-8-|
C|-0---7---3---8-7-8-7-|-0---7---3---8-7-8-8-|

E
pm.........................................
D|---------------------|-------------------|
A|---------------------|-------------------|
F|---------------------|-------------------| x3
C|-0---7---3---8-7-8-7-|-0---7---3---8-7-8-|
G|-0---7---3---8-7-8-7-|-0---7---3---8-7-8-|
C|-0---7---3---8-7-8-7-|-0---7---3---8-7-8-|

 
pm................................
D|---------------------|---------------------|
A|---------------------|---------------------|
F|---------------------|---------------------|
C|-0---7---3---8-7-8-7-|-0---7---3---8-7-8-8-|
G|-0---7---3---8-7-8-7-|-0---7---3---8-7-8-8-|
C|-0---7---3---8-7-8-7-|-0---7---3---8-7-8-8-|
 
D|---------------------|---------------------|
A|---------------------|---------------------|
F|---------------------|---------------------|
C|-0---7---3---8-7-8-7-|-0---7---3---8-7-8-8-| x4
G|-0---7---3---8-7-8-7-|-0---7---3---8-7-8-8-|
C|-0---7---3---8-7-8-7-|-0---7---3---8-7-8-8-|
 

(with chorus; between the chords a 2nd guitar plays in the 7th fret on the 4th string)
D|----13/12--12---10---10--11-10----8--8---10--10--10-|
A|----------------------------------------------------|
F|----10/9---9----7----7---8--7-----5--5---7---7---7--| x5
C|----------------------------------------------------|
G|----------------------------------------------------|
C|-0--------------------------------------------------|


(with chorus; between the chords a 2nd guitar plays in the 7th fret on the 4th string)

D|----13/12--12---10---10--11-10----8--8---101010101010101010-|
A|------------------------------------------------------------|
F|----10/9---9----7----7---8--7-----5--5---7-7-7-7-7-7-7-7-7--|
C|------------------------------------------------------------|
G|------------------------------------------------------------|
C|-0----------------------------------------------------------|

 
7x:                      1x:
D|----------------------|-----------------|
A|----------------------|-----------------|
F|----------------------|-----------------|
C|-0-0--7-7--3-3--8-7-8-|-0-0--7-7--3---8-|
G|-0-0--7-7--3-3--8-7-8-|-0-0--7-7--3---8-|
C|-0-0--7-7--3-3--8-7-8-|-0-0--7-7--3---8-|

 
pm............
D|----------------------|
A|----------------------|
F|----------------------| x8
C|-0-0-0-0-0-0----------|
G|-0-0-0-0-0-0----------|
C|-0-0-0-0-0-0--000-000-|

 
   pm...      .....
D|---------------------|
A|---------------------|
F|---------------------|
C|-0-0-0-7--7-3-3-3-8--| x3
G|-0-0-0-7--7-3-3-3-8--|
C|-0-0-0-7--7-3-3-3-8--|


 
D|-----------------|
A|-----------------|
F|-----------------|
C|-0---7---3-3-3-8-| x4
G|-0---7---3-3-3-8-|
C|-0---7---3-3-3-8-|



************************************

| /   Slide up
| pm  Palm mute

************************************

            
            
Suggest correction
Creating personal tab
Creating personal tab
You can edit any tab online and save it as your Personal.

You can edit, replace or remove any tab part or add personal notes – all changes will be seen only by you.

Personal tabs can be accessed anytime from any device, even offline.
Learn more »
comments
print report bad tab
16 comments total. Showing first comments.
+2 reply
DrowningPool 60 Feb 27, 2003 07:00 PM

sounds cool.. nice one..

-2 reply
BestT@GuitaR 10 Nov 07, 2003 07:00 PM

bitch *** damn *** ass

+1 reply
Red.Washburn77 30 Aug 30, 2005 08:00 PM

It's good, almost perfect. Live, that is played on bass, but not on the album.

guest
Wanna post a correction for this tab? Suggest correction