Oops, an error
Loading. Please wait.

My Beautiful Princess tab

version 1
version 1

Whole song

Interactive

1,961 views 9 this week
no commentswrite comment
1 2 3 4 5
2 more votes to show rating
add to favorites
×
Save as Personal and add changes to this tab that will be seen only by you. Learn more ›
×
You can save this tab as Personal to edit and correct it or add notes. All changes will be seen only by you. Learn more »
launch autoscroll
font size
0
reset
how to read this tab
guitar tuner
edit
Autoscroll
slow
fast
+/-
esc
set tempo
stop
      System Of A Down - My Beautiful Princess                               

                                                             

Dropped C Tuning
     Q    E  Q    E  E  E     E  E  E  E  E  E  E  E   
D||-------1----------1-----|--5--L--5-----0--L--0-----|
A||------------------------|--------------------------|
F||------------------------|--------------------------|
C||--0-------0----0-----0--|--------------------------|
G||------------------------|-----------0-----------0--|
C||------------------------|--------------------------|


  E  E  E  Q    E  E  E     E  E  E  E  E  E  E  E     Q    E  Q    E  E  E   
--3--L--3----------3-----|--------------0--L--0-----|-------1----------1-----|
-------------------------|--3--L--3-----------------|------------------------|
-------------------------|--------------------------|------------------------|
-------------------------|-----------0-----------0--|--0-------0----0-----0--|
-----------0----0-----0--|--------------------------|------------------------|
-------------------------|--------------------------|------------------------|


  E  E  E  E  E  E  E  E     E  E  E  Q    E  E  E     E  E  E  E  E  E  E  E   
--5--L--5-----0--L--0-----|--3--L--3----------3-----|--------------0--L--0-----|
--------------------------|-------------------------|--3--L--3-----------------|
--------------------------|-------------------------|--------------------------|
--------------------------|-------------------------|-----------0-----------0--|
-----------0-----------0--|-----------0----0-----0--|--------------------------|
--------------------------|-------------------------|--------------------------|


  Q    E  Q    E  E  E     E  E  E  E  E  E  E  E     E  E  E  Q    E  E  E   
-------1----------1-----|--5--L--5-----0--L--0-----|--3--L--3----------3-----|
------------------------|--------------------------|-------------------------|
------------------------|--------------------------|-------------------------|
--0-------0----0-----0--|--------------------------|-------------------------|
------------------------|-----------0-----------0--|-----------0----0-----0--|
------------------------|--------------------------|-------------------------|


  E  E  E  E  E  E  E  E     Q    E  Q    E  E  E     E  E  E  E  E  E  E  E   
--------------0--L--0-----|-------1----------1-----|--5--L--5-----0--L--0-----|
--3--L--3-----------------|------------------------|--------------------------|
--------------------------|------------------------|--------------------------|
-----------0-----------0--|--0-------0----0-----0--|--------------------------|
--------------------------|------------------------|-----------0-----------0--|
--------------------------|------------------------|--------------------------|


  E  E  E  Q    E  E  E     E  E  E  E  E  E  E  E     Q    E  Q    E  E  E   
--3--L--3----------3-----|--------------0--L--0-----|-------1----------1-----|
-------------------------|--3--L--3-----------------|------------------------|
-------------------------|--------------------------|------------------------|
-------------------------|-----------0-----------0--|--0-------0----0-----0--|
-----------0----0-----0--|--------------------------|------------------------|
-------------------------|--------------------------|------------------------|


  Q    E  Q    E  E  E   
------------------------|
-------2----------2-----|
------------------------|
------------------------|
--0-------0----0-----0--|
------------------------|


                
  Q                                          E  Q    E  E  E   
--------------------------------------------------------------|
---------------------------------------------3----------3-----|
--------------------------------------------------------------|
--0---------------------------------------------0----0-----0--|
--------------------------------------------------------------|
--------------------------------------------------------------|


  Q    E  Q    E  E  E     Q    E  Q    E  E  E     Q    E  Q    E  E  E   
------------------0-----|-------1----------1-----|------------------------|
-------3----------------|------------------------|-------2----------2-----|
------------------------|------------------------|------------------------|
--0-------0----0-----0--|--0-------0----0-----0--|------------------------|
------------------------|------------------------|--0-------0----0-----0--|
------------------------|------------------------|------------------------|


  Q    E  Q    E  E  E   
------------------------|
-------3----------3-----|
------------------------|
--0-------0----0-----0--|
------------------------|
------------------------|


                 
  Q                                         E  Q    E  E  E   
-------------------------------------------------------0-----|
--------------------------------------------3----------------|
-------------------------------------------------------------|
--0--------------------------------------------0----0-----0--|
-------------------------------------------------------------|
-------------------------------------------------------------|


  Q    E  Q    E  E  E     E  E  E  E  E  E  E  E     E  E  E  Q    E  E  E   
-------1----------1-----|--5--L--5-----0--L--0-----|--3--L--3----------3-----|
------------------------|--------------------------|-------------------------|
------------------------|--------------------------|-------------------------|
--0-------0----0-----0--|--------------------------|-------------------------|
------------------------|-----------0-----------0--|-----------0----0-----0--|
------------------------|--------------------------|-------------------------|


  E  E  E  E  E  E  E  E     Q    E  Q    E  E  E     E  E  E  E  E  E  E  E   
--------------0--L--0-----|-------1----------1-----|--5--L--5-----0--L--0-----|
--3--L--3-----------------|------------------------|--------------------------|
--------------------------|------------------------|--------------------------|
-----------0-----------0--|--0-------0----0-----0--|--------------------------|
--------------------------|------------------------|-----------0-----------0--|
--------------------------|------------------------|--------------------------|


  E  E  E  Q    E  E  E     E  E  E  E  E  E  E  E     Q    E  Q    E  E  E   
--3--L--3----------3-----|--------------0--L--0-----|-------1----------1-----|
-------------------------|--3--L--3-----------------|------------------------|
-------------------------|--------------------------|------------------------|
-------------------------|-----------0-----------0--|--0-------0----0-----0--|
-----------0----0-----0--|--------------------------|------------------------|
-------------------------|--------------------------|------------------------|


  E  E  E  E  E  E  E  E     E  E  E  Q    E  E  E     E  E  E  E  E  E  E  E   
--5--L--5-----0--L--0-----|--3--L--3----------3-----|--------------0--L--0-----|
--------------------------|-------------------------|--3--L--3-----------------|
--------------------------|-------------------------|--------------------------|
--------------------------|-------------------------|-----------0-----------0--|
-----------0-----------0--|-----------0----0-----0--|--------------------------|
--------------------------|-------------------------|--------------------------|


  Q    E  Q    E  E  E     E  E  E  E  E  E  E  E     E  E  E  Q    E  E  E   
-------1----------1-----|--5--L--5-----0--L--0-----|--3--L--3----------3-----|
------------------------|--------------------------|-------------------------|
------------------------|--------------------------|-------------------------|
--0-------0----0-----0--|--------------------------|-------------------------|
------------------------|-----------0-----------0--|-----------0----0-----0--|
------------------------|--------------------------|-------------------------|


  E  E  E  E  E  E  E  E     Q    E  Q    E  E  E     Q    E  Q    E  E  E   
--------------0--L--0-----|-------1----------1-----|------------------------|
--3--L--3-----------------|------------------------|-------2----------2-----|
--------------------------|------------------------|------------------------|
-----------0-----------0--|--0-------0----0-----0--|------------------------|
--------------------------|------------------------|--0-------0----0-----0--|
--------------------------|------------------------|------------------------|


  Q    E  Q    E  E  E     Q    E  Q    E  E  E     Q    E  Q    E  E  E   
------------------------|------------------0-----|-------1----------1-----|
-------3----------3-----|-------3----------------|------------------------|
------------------------|------------------------|------------------------|
--0-------0----0-----0--|--0-------0----0-----0--|--0-------0----0-----0--|
------------------------|------------------------|------------------------|
------------------------|------------------------|------------------------|


                                                            slide           
  Q    E  Q    E  E  E     Q    E  Q    E  E  E     Q    E  Q     E  E  E   
------------------------|------------------------|-------------------0-----|
-------2----------2-----|-------3----------3-----|-------3-----------------|
------------------------|------------------------|-------------------------|
------------------------|--0-------0----0-----0--|--0-------0-----0-----0--|
--0-------0----0-----0--|------------------------|-------------------------|
------------------------|------------------------|-------------------------|


  Q    E  Q    E  E  E     Q    E  Q    E  E  E     Q    E  Q    E  E  E   
-------1----------1-----|------------------------|------------------------|
------------------------|-------2----------2-----|-------3----------3-----|
------------------------|------------------------|------------------------|
--0-------0----0-----0--|------------------------|--0-------0----0-----0--|
------------------------|--0-------0----0-----0--|------------------------|
------------------------|------------------------|------------------------|


          slide                                                             
  Q    E  Q     E  E  E     Q    E  Q    E  E  E     Q    E  Q    E  E  E   
-------------------0-----|-------1----------1-----|------------------------|
-------3-----------------|------------------------|-------2----------2-----|
-------------------------|------------------------|------------------------|
--0-------0-----0-----0--|--0-------0----0-----0--|------------------------|
-------------------------|------------------------|--0-------0----0-----0--|
-------------------------|------------------------|------------------------|

                                                 [with SOLO]
  Q    E  Q    E  E  E     Q    E  Q    E  E  E     Q    E  Q    E  E  E   
------------------------|------------------0-----|-------1----------1-----|
-------3----------3-----|-------3----------------|------------------------|
------------------------|------------------------|------------------------|
--0-------0----0-----0--|--0-------0----0-----0--|--0-------0----0-----0--|
------------------------|------------------------|------------------------|
------------------------|------------------------|------------------------|


  E  E  E  E  E  E  E  E     E  E  E  Q    E  E  E     E  E  E  E  E  E  E  E   
--5--L--5-----0--L--0-----|--3--L--3----------3-----|--------------0--L--0-----|
--------------------------|-------------------------|--3--L--3-----------------|
--------------------------|-------------------------|--------------------------|
--------------------------|-------------------------|-----------0-----------0--|
-----------0-----------0--|-----------0----0-----0--|--------------------------|
--------------------------|-------------------------|--------------------------|


  Q    E  Q    E  E  E     E  E  E  E  E  E  E  E     E  E  E  Q    E  E  E   
-------1----------1-----|--5--L--5-----0--L--0-----|--3--L--3----------3-----|
------------------------|--------------------------|-------------------------|
------------------------|--------------------------|-------------------------|
--0-------0----0-----0--|--------------------------|-------------------------|
------------------------|-----------0-----------0--|-----------0----0-----0--|
------------------------|--------------------------|-------------------------|


  E  E  E  E  E  E  E  E     Q    E  Q    E  E  E     E  E  E  E  E  E  E  E   
--------------0--L--0-----|-------1----------1-----|--5--L--5-----0--L--0-----|
--3--L--3-----------------|------------------------|--------------------------|
--------------------------|------------------------|--------------------------|
-----------0-----------0--|--0-------0----0-----0--|--------------------------|
--------------------------|------------------------|-----------0-----------0--|
--------------------------|------------------------|--------------------------|


  E  E  E  Q    E  E  E     E  E  E  E  E  E  E  E     Q    E  Q    E  E  E   
--3--L--3----------3-----|--------------0--L--0-----|-------1----------1-----|
-------------------------|--3--L--3-----------------|------------------------|
-------------------------|--------------------------|------------------------|
-------------------------|-----------0-----------0--|--0-------0----0-----0--|
-----------0----0-----0--|--------------------------|------------------------|
-------------------------|--------------------------|------------------------|


  E  E  E  E  E  E  E  E     E  E  E  Q    E  E  E     E  E  E  E  E  E  E  E   
--5--L--5-----0--L--0-----|--3--L--3----------3-----|--------------0--L--0-----|
--------------------------|-------------------------|--3--L--3-----------------|
--------------------------|-------------------------|--------------------------|
--------------------------|-------------------------|-----------0-----------0--|
-----------0-----------0--|-----------0----0-----0--|--------------------------|
--------------------------|-------------------------|--------------------------|


  Q    E  Q    E  E  E     Q    E  Q    E  E  E     Q    E  Q    E  E  E   
-------1----------1-----|------------------------|------------------------|
------------------------|-------2----------2-----|-------3----------3-----|
------------------------|------------------------|------------------------|
--0-------0----0-----0--|------------------------|--0-------0----0-----0--|
------------------------|--0-------0----0-----0--|------------------------|
------------------------|------------------------|------------------------|


  Q    E  Q    E  E  E     Q    E  Q    E  E  E     Q    E  Q    E  E  E   
------------------0-----|-------1----------1-----|------------------------|
-------3----------------|------------------------|-------2----------2-----|
------------------------|------------------------|------------------------|
--0-------0----0-----0--|--0-------0----0-----0--|------------------------|
------------------------|------------------------|--0-------0----0-----0--|
------------------------|------------------------|------------------------|


  Q    E  Q    E  E  E     Q    E  Q    E  E  E     Q    E  Q    E  E  E   
------------------------|------------------0-----|-------1----------1-----|
-------3----------3-----|-------3----------------|------------------------|
------------------------|------------------------|------------------------|
--0-------0----0-----0--|--0-------0----0-----0--|--0-------0----0-----0--|
------------------------|------------------------|------------------------|
------------------------|------------------------|------------------------|


  Q    E  Q    E  E  E     Q    E  Q    E  E  E     Q    E  Q    E  E  E   
------------------------|------------------------|------------------0-----|
-------2----------2-----|-------3----------3-----|-------3----------------|
------------------------|------------------------|------------------------|
------------------------|--0-------0----0-----0--|--0-------0----0-----0--|
--0-------0----0-----0--|------------------------|------------------------|
------------------------|------------------------|------------------------|


  Q    E  Q    E  E  E     Q    E  Q    E  E  E     Q    E  Q    E  E  E   
-------1----------1-----|------------------------|------------------------|
------------------------|-------2----------2-----|-------3----------3-----|
------------------------|------------------------|------------------------|
--0-------0----0-----0--|------------------------|--0-------0----0-----0--|
------------------------|--0-------0----0-----0--|------------------------|
------------------------|------------------------|------------------------|


  Q    E  Q    E  E  E     Q    E  Q    E  E  E     E  E  E  E  E  E  E  E   
------------------0-----|-------1----------1-----|--5--L--5-----0--L--0-----|
-------3----------------|------------------------|--------------------------|
------------------------|------------------------|--------------------------|
--0-------0----0-----0--|--0-------0----0-----0--|--------------------------|
------------------------|------------------------|-----------0-----------0--|
------------------------|------------------------|--------------------------|


  E  E  E  Q    E  E  E     E  E  E  E  E  E  E  E     Q    E  Q    E  E  E   
--3--L--3----------3-----|--------------0--L--0-----|-------1----------1-----|
-------------------------|--3--L--3-----------------|------------------------|
-------------------------|--------------------------|------------------------|
-------------------------|-----------0-----------0--|--0-------0----0-----0--|
-----------0----0-----0--|--------------------------|------------------------|
-------------------------|--------------------------|------------------------|


  E  E  E  E  E  E  E  E     E  E  E  Q    E  E  E     E  E  E  E  E  E  E  E   
--5--L--5-----0--L--0-----|--3--L--3----------3-----|--------------0--L--0-----|
--------------------------|-------------------------|--3--L--3-----------------|
--------------------------|-------------------------|--------------------------|
--------------------------|-------------------------|-----------0-----------0--|
-----------0-----------0--|-----------0----0-----0--|--------------------------|
--------------------------|-------------------------|--------------------------|


  Q    E  Q    E  E  E     E  E  E  E  E  E  E  E     E  E  E  Q    E  E  E   
-------1----------1-----|--5--L--5-----0--L--0-----|--3--L--3----------3-----|
------------------------|--------------------------|-------------------------|
------------------------|--------------------------|-------------------------|
--0-------0----0-----0--|--------------------------|-------------------------|
------------------------|-----------0-----------0--|-----------0----0-----0--|
------------------------|--------------------------|-------------------------|


  E  E  E  E  E  E  E  E     Q    E  Q    E  E  E     E  E  E  E  E  E  E  E   
--------------0--L--0-----|-------1----------1-----|--5--L--5-----0--L--0-----|
--3--L--3-----------------|------------------------|--------------------------|
--------------------------|------------------------|--------------------------|
-----------0-----------0--|--0-------0----0-----0--|--------------------------|
--------------------------|------------------------|-----------0-----------0--|
--------------------------|------------------------|--------------------------|


                                                       ^                 
  E  E  E  Q    E  E  E     E  E  E  E  E  E  E  E     W                 
--3--L--3----------3-----|--------------0--L--0-----|--1----------------|
-------------------------|--3--L--3-----------------|-------------------|
-------------------------|--------------------------|-------------------|
-------------------------|-----------0-----------0--|--0----------------|
-----------0----0-----0--|--------------------------|--0----------------|
-------------------------|--------------------------|-------------------|


  W                  
--L----------------||
-------------------||
-------------------||
--L----------------||
--L----------------||
-------------------||







[SOLO]
   H        Q    E   S  S     H        Q    E   S  S  
--10--------L----L--10-12-|--13--------L----L--12-13-|
--------------------------|--------------------------|
--------------------------|--------------------------|
--------------------------|--------------------------|
--------------------------|--------------------------|
--------------------------|--------------------------|


   H        Q    E   S  S     E   E   E   E   E   E   E   E   
--15--------L----L--12-13-|--15--13--12--10--12--13--12--10--|
--------------------------|----------------------------------|
--------------------------|----------------------------------|
--------------------------|----------------------------------|
--------------------------|----------------------------------|
--------------------------|----------------------------------|


   Q    E   E   Q    E   S  S    E  E  E  E  E  E  E  E   
--10----L---------------------|--8--6--5--3--5--6--5--3--|
-----------10--10----L--10-11-|--------------------------|
------------------------------|--------------------------|
------------------------------|--------------------------|
------------------------------|--------------------------|
------------------------------|--------------------------|


  Q    E  E  Q    E  E      E  E  E  E  E  E  E  E      H        Q    E   S  S  
--3----L----------------|--/3--1--1--0--0-----------|--10--------L----L--10-12-|
----------1--1----L--L--|------------------3--3--L--|--------------------------|
------------------------|---------------------------|--------------------------|
------------------------|---------------------------|--------------------------|
------------------------|---------------------------|--------------------------|
------------------------|---------------------------|--------------------------|


   H        Q    E   S  S     H        Q    E   S  S  
--13--------L----L--12-13-|--15--------L----L--12-13-|
--------------------------|--------------------------|
--------------------------|--------------------------|
--------------------------|--------------------------|
--------------------------|--------------------------|
--------------------------|--------------------------|


   E   E   E   E   E   E   E   E      Q    E   E   Q    E   S  S  
--15--13--12--10--12--13--12--10--|--10----L---------------------|
----------------------------------|-----------10--10----L--10-11-|
----------------------------------|------------------------------|
----------------------------------|------------------------------|
----------------------------------|------------------------------|
----------------------------------|------------------------------|


  E  E  E  E  E  E  E  E     Q    E  E  Q    E  E      E  E  E  E  E  E  E  E   
--8--6--5--3--5--6--5--3--|--3----L----------------|--/3--1--1--0--0-----------|
--------------------------|----------1--1----L--L--|------------------3--3--L--|
--------------------------|------------------------|---------------------------|
--------------------------|------------------------|---------------------------|
--------------------------|------------------------|---------------------------|
--------------------------|------------------------|---------------------------|




Duration Legend
---------------
W - whole
H - half
Q - quarter
E - 8th
S - 16th
T - 32nd
X - 64th
. - note dotted
|-n-|  - n-tuplets


Tablature Legend
----------------
L - tied note
x - dead note
g - grace note
(n) - ghost note
> - accentuded note
NH - natural harmonic
AH - artificial harmonic
TH - tapped harmonic
SH - semi harmonic
PH - pitch harmonic
h - hammer on
p - pull off
b - bend
br - bendRelease
pb - preBend
pbr - preBendRelease
brb - bendReleaseBend
\n/ - tremolo bar dip
\n - tremolo bar dive
-/n - tremolo bar Release up
/n\ - tremolo bar inverted dip
/n - tremolo bar return
-\n - tremolo bar Release down
S - shift slide
s - legato slide
/ -  slide into from below or out of upwards
\ -  slide into from above or out of downwards
~ - vibrato
W - wide vibrato
tr - trill
TP - tremolo picking
T - tapping
S - slap
P - pop
< - fade in
^ - brush up
v - brush down

            
            
Suggest correction
Creating personal tab
Creating personal tab
You can edit any tab online and save it as your Personal.

You can edit, replace or remove any tab part or add personal notes – all changes will be seen only by you.

Personal tabs can be accessed anytime from any device, even offline.
Learn more »
Give kudos to tab author, rate the tab!
1 2 3 4 5
comments
print report bad tab
guest
You may want to rate the tab now too:
select rating
Wanna post a correction for this tab? Suggest correction