Oops, an error
Loading. Please wait.

Nuguns solo tab

version 1
version 1

Solo

Whole song

Interactive

7,911 views 9 this week
6 commentsread comments
1 2 3 4 5
x 7
add to favorites
×
Save as Personal and add changes to this tab that will be seen only by you. Learn more ›
×
You can save this tab as Personal to edit and correct it or add notes. All changes will be seen only by you. Learn more »
launch autoscroll
font size
0
reset
how to read this tab
guitar tuner
backing track
0:00
0:00
edit
Autoscroll
slow
fast
+/-
esc
set tempo
stop
"NuGuns" (solo)
System Of A Down

I may be a bit late and not many listen to SOAD anymore (I may be wrong) but i
just want to submit my tabs for this great song. This is my favorite song from
Steal This Album! by System of A Down, one of the greatest rock bands in the world!!!
Sorry Ben Misikin, and i mean it sincerely, but i can't understand your solo
tabs, so i made another one. Thanx for understanding.

This song is in (as usual) Drop C: CGCFAD

I tabbed this in a way so that you can read both guitars (mandolins, maybe?)
in the exact timing they are being played.

A
Guitar 1
d ---------------------------------------------------------------
a ---------------------------------------------------------------
f -7777777777777777-8888-7-5-7--5-3-5--3-2-3--2-0----------------
c ---------------------------------------------------------------
g ---------------------------------------------------------------
c ---------------------------------------------------------------

Guitar 2 (absent)
d ---------------------------------------------------------------
a ---------------------------------------------------------------
f ---------------------------------------------------------------
c ---------------------------------------------------------------
g ---------------------------------------------------------------
c ---------------------------------------------------------------

B
Guitar 1 
(note: this is played on high 'c' string while above was played on 'f')
d ---------------------------------------------------------------
a ---------------------------------------------------------------
f ---------------------------------------------------------------
c -7777777777777777-8888-7-5-7--5-3------------------------------
g -----------------------------------0-2-3-2---------------------
c ---------------------------------------------------------------

Guitar 2
d ---------------------------------------------------------------------------
a -----------------/15-15-15-16-18-16-15-16-15b16-13-15-13-11-13-11-10-11-10-
f ---------------------------------------------------------------------------
c ---------------------------------------------------------------------------
g ---------------------------------------------------------------------------
c ---------------------------------------------------------------------------

C
Guitar 1 (this is played on 'a' string)
d ---------------------------------------------------------------
a -7777777777777777-10b7h8b7h10b7h88b7h10--8h7-8h7-8h7-----------
f ---------------------------------------------------------------
c ---------------------------------------------------------------
g ---------------------------------------------------------------
c ---------------------------------------------------------------

Guitar 2
d ----------------------------------------------------------------------------
a -12-1212-1212-1212-1212-1212-1212-1212-12b15h12b13h12b15h12b13h12b15--13h12-
f ----------------------------------------------------------------------------
c ----------------------------------------------------------------------------
g ----------------------------------------------------------------------------
c ----------------------------------------------------------------------------

D
Guitar 1
d ----------55555555----------55555555----------55555555---------
a -33333333----------33333333----------33333333------------------
f ---------------------------------------------------------------
c ---------------------------------------------------------------
g ---------------------------------------------------------------
c ---------------------------------------------------------------

Guitar 2
d ---------------------------------------------------------------
a -15-15-15-15-15-15-15-15-15b16b18h16h15h13-15h13h11h10---------
f ---------------------------------------------------------------
c ---------------------------------------------------------------
g ---------------------------------------------------------------
c ---------------------------------------------------------------

E
Guitar 1
d ---------------------------------------------------------------
a ---------------------------------------------------------------
f -2-3-5-3-------------------------------------------------------
c ---------------------------------------------------------------
g ---------------------------------------------------------------
c ---------------------------------------------------------------

Guitar 2
d ---------------------------------------------------------------
a -10-11-13-11---------------------------------------------------
f ---------------------------------------------------------------
c ---------------------------------------------------------------
g ---------------------------------------------------------------
c ---------------------------------------------------------------

Hey, it's real easy! U juz gots to listen closely to the song (I've always wanted
to say that), and u gots to be fast with them fingers (or picks). Daron Malakian,
I WORSHIP YOU!!!
Alright, I feel enlightened now that i've put it down on paper. Please feel free
to comment about this tab at sarch_the_dragon@hotmail.com. Also, if u can give me
some tips on how to play the natural harmonics for this song's verses (I have clumsy
fat fingers), pls email to me.

Peace to the world
Sarch the Dragon

            
            
Suggest correction
Creating personal tab
Creating personal tab
You can edit any tab online and save it as your Personal.

You can edit, replace or remove any tab part or add personal notes – all changes will be seen only by you.

Personal tabs can be accessed anytime from any device, even offline.
Learn more »
comments
print report bad tab
6 comments total. Showing first comments.
0 reply
RainbowBassist 154 Jul 12, 2006 01:15 PM

To me, it sounds like it's played on an unplugged nylon-string classical guitar. BUT, that's just me. I tried it, and it sounds pretty good. Otherwise, who knows what he's playing. Also, there's about 3 guitars that I could count.

0 reply
skeeto61291 10 Sep 01, 2006 07:05 AM

good tab...sounds perfect to me...but u should add in the electric guitar playing in the background

0 reply
Alpha_Wolf 268 Jun 09, 2007 01:13 PM

Nice dude... I gave it 5 stars. Uh.. and as for the verse harmonics, the fingering is this:

bridge
-------------- all these notes are
-------------- harmonics.
--------7---7-
-7---7--------
---5------5---
--------------

verse
pm.....................
-----------------------|------------- all these notes are
-----------------------|------------- harmonics.
-----7--7-7-----7--7-7-|-----------7-
-----------------------|----7--------
-6-6--------6-6--------|5-5----5-5---
-----------------------|-------------


It's in Drop C, of course...

guest
Wanna post a correction for this tab? Suggest correction