Oops, an error
Loading. Please wait.
We have an official Pluck tab made by UG professional guitarists. Check out the tab »
×
29,813 views 21 this week
14 commentsread comments
1 2 3 4 5
x 23
add to favorites
×
Save as Personal and add changes to this tab that will be seen only by you. Learn more ›
×
You can save this tab as Personal to edit and correct it or add notes. All changes will be seen only by you. Learn more »
launch autoscroll
font size
0
reset
how to read this tab
guitar tuner
backing track
0:00
0:00
edit
Autoscroll
slow
fast
+/-
esc
set tempo
stop
Author
Tuning: c g c f a d

[Intro]
(Gtr 1)(dist)
Fill 1                              (Gtr 1) (Fill 1) (x4)
  pm.....................       (x4)(Gtr 2)                                 (x4)
e|-0-0-0-0-0-0-0-0-0-0-0-0-0-0-0-0-|----------------------------------------|
B|---------------------------------|----------------------------------------|
G|---------------------------------|----------------------------------------|
D|---------------------------------|----------------------------------------|
A|---------------------------------|----------------------------------------|
E|---------------------------------|-2-2-3-3-2--2-2-3-3-2--2--3--2-2-3-3-2--|
                       End Fill 1

(Gtr 2) tacet                         ____________________________________
(Gtr 3) (dist)                        |1,2,3                 |4
  pm..................................................................
e|---------------------------------|----------------------|-----------|
B|---------------------------------|----------------------|-----------|
G|---------------------------------|----------------------|-----------|
D|---------------------------------|----------------------|-----------|
A|---------------------------------|----------------------|-----------|
E|-2-2-3-3-2-2-2-2-3-3-2-2-2-2-3-3-|2-2-3-3-0--0--0-0-0-0-|-2-2-3-3-2-|
                                            Elimination.
(Gtrs 1 & 3)
(Rhy Fig 1)
pm.......   ........           ........
e|------------------------------|------------|
B|------------------------------|------------|
G|------------------------------|------------|
D|----------2----------2--2--3--|---------2--|
A|----------2----------2--2--3--|---------2--|
E|--2-2-3-3-2--2-2-3-3-2--2--3--|-2-2-3-3-2--|
 Die

  (Gtr 1)
e|--0-0--0--0--0-|-0-0--0--0--0-|-0-0--0--0--0-|-0-0--0--0--0-|
B|--0-0--0--0--0-|-0-0--0--0--0-|-6-0--0--0--0-|-0-0--0--0--0-|
G|--4-4--4--4--4-|-3-4--4--4--0-|-0-0--4--4--4-|-3-4--4--4--4-|
D|---------------|--------------|--------------|--------------|
A|---------------|--------------|--------------|--------------|
E|---------------|--------------|--------------|--------------|
                                                       Well a
[Verse]
(Riff a) 
(All the ghost notes are palm muted) 
e|-------------------|---------------------|----------------------|
B|-------------------|---------------------|----------------------|
G|-7/9---9---9---9-9-|-9/13---13---13---13-|-13/15---15---15---10-|
D|-x/x---x---x---x-x-|-x/-x----x----x----x-|--x/-x----x----x----x-|
A|-5/7---7---7---7-7-|-7/11---11---11---11-|-11/13---13---13----8-|
E|----(0)-(0)-(0)----|-----(0)--(0)--(0)---|------(0)--(0)--(0)---|
whole race,         Genocide,             taken away          all

e|---------------------|-----------------|------------------------|
B|---------------------|-----------------|------------------------|
G|-10/13---13---13---7-|-7/9---9---9---9-|-9/13---13---13---13-13-|
D|--x/-x----x----x---x-|-x/x---x---x---x-|-x/-x----x----x----x--x-|
A|--8/11---11---11---5-|-5/7---7---7---7-|-7/11---11---11---11-11-|
E|------(0)--(0)--(0)--|----(0)-(0)-(0)--|-----(0)--(0)--(0)------|
  of our pride.   A    whole race,      Genocide,

e|-----------------------|-----------------------------------------|
B|-----------------------|-----------------------------------------|
G|-13/15---15---15----10-|-10/13--13-13-13-13-13-13-13-13-13-13-13\|
D|--x/-x----x----x-----x-|--x/-x---x--x--x--x--x--x--x--x--x--x--x\|
A|-11/13---13---13-----8-|--8/11--11-11-11-11-11-11-11-11-11-11-11\|
E|------(0)--(0)---(0)---|-----------------------------------------|
taken away...           (watch them all fall down!)

[Chorus]
(Gtrs 1 & 3) (RhyFig 2)
    pm.......     .........
e|----------------------------|
B|----------------------------|
G|----------------------------|
D|-2----------0--2----------0-|
A|-2----------0--2----------0-|
E|-2--2-2-2-2-0--2--2-2-2-2-0-|
Revolution,              the

(Gtrs 1 & 3) (RhyFig 2) (x7)
only solution, the armed response of an entire nation. Revolution, the
only solution. We've taken all your shit now it's time for restitution.

[Verse]
(Gtr 1)
(Riff a, simile)
Recognition, Restoration, Reparation.
Recognition, Restoration, Reparation. (Watch them all fall down)

[Chorus]
(Gtrs 1 & 3)
(RhyFig 2) (x6)
Revolution, the only solution, the armed response of an
entire nation. Revolution, the only solution. We've

(Gtrs 1 & 3)                     (RhyFill 1)
    pm.......     .........     ..........
e|-----------------------------|------------------------|
B|-----------------------------|------------------------|
G|-----------------------------|------------------------|
D|-2----------0--2----------0--|0--3--3--3--------------|
A|-2----------0--2----------0--|0--5--5--5--5--5--5--0--|
E|-2--2-2-2-2-0--2--2-2-2-2-0--|0-----------------------|
taken all your shit now it's time for restitution.

[Bridge]
(RhyFig 3)
e|--------------------------|----------------------|---------------------------|
B|--------------------------|----------------------|---------------------------|
G|----5-5-5--5--5--7--5-----|----------------------|---------------------------|
D|-2--x-x-x--x--x--x--x-----|-5-----------5-----5--|----3---3------3-----3-----|
A|-2--3-3-3--3--3--5--3--0--|-5-----------5-----5--|----3---3------3-----3-----|
E|-2------------------------|-5-----------5-----5--|----3---3------3-----3-----|
                                                                     
                               The plan was mast-ered and called    Geno-
cide.                          You took all the children and then we died
                                 The few that remained were never found

(Gtrs 1 & 3)    pm.......    ........  .........           ........   (x3)  
e|-------------|------------|-----------------------------|--------------|
B|-------------|------------|-----------------------------|--------------|
G|-------------|------------|-----------------------------|--------------|
D|--5---5---5--|--3-3-3-3---|---------2----------2--2--3--|---------2----|
A|--5---5---5--|--3-3-3-3---|---------2----------2--2--3--|---------2----|
E|--5---5---5--|--3-3-3-3---|-2-2-3-3-2--2-2-3-3-2--2--3--|-2-2-3-3-2----|
                            Down!

  pm......   .........           ........   .................
e|------------------------------|-----------------------------|
B|------------------------------|-----------------------------|
G|------------------------------|-----------------------------|
D|---------2-----------2--2--3--|---------2-------------------|
A|---------2-----------2--2--3--|---------2-------------------|
E|-2-2-3-3-2--2-2-3-3--2--2--3--|-2-2-3-3-2--2-2-2-2-2-2-5--3-|
Yeah!                                                   Walk

(Gtrs 1 & 3)
(RhyFig 1)1st meas. (x8)
down!                     Walk down.

(Gtr 1)
(Riff a)
e|-------------------|------------------------|----------------------|
B|-------------------|------------------------|----------------------|
G|-7/9---9---9---9-9-|-9/13---13---13---13-13-|-13/15---15---15---10-|
D|-x/x---x---x---x-x-|-x--x----x----x----x--x-|--x/-x----x----x----x-|
A|-5/7---7---7---7-7-|-7/11---11---11---11-11-|-11/13---13---13----8-|
E|----(0)-(0)-(0)----|-----(0)--(0)--(0)------|-------0----0----0----|

               steady gliss
e|-------------------------|
B|-------------------------|
G|-10/13-13-13-------------|
D|--x/-x--x--x-------------|
A|--8/11-11-11--x\x\-------|
E|--------------x\x\-------|

[Chorus]
(Gtrs 1 & 3)
(RhyFig 2) (x7)
Revolution, the only solution, the armed responce of an entire nation.
Revolution, the only. We've taken all your shit now it's time for restitution.

[Outro]
          The plan was mastered and called geno
cide. You took all the children and then we died.
         The few that remained were never found.

(Gtrs 1 & 3)
e|-----------------------|-----------------------|-----------|---------|
B|-----------------------|-----------------------|-----------|---------|
G|-----------------------|-----------------------|-----------|---------|
D|---5---------5------5--|--3--3-----3----3------|-2---------|---------|
A|---5---------5------5--|--3--3-----3----3------|-2---------|---------|
E|---5---------5------5--|--3--3-----3----3--0---|-2---------|---------|
       All  in    a  system.                    Down


************************************

| /    Slide up
| x    Dead note
| (n)  Ghost note
| \    Slide down

************************************

            
            
Suggest correction
Creating personal tab
Creating personal tab
You can edit any tab online and save it as your Personal.

You can edit, replace or remove any tab part or add personal notes – all changes will be seen only by you.

Personal tabs can be accessed anytime from any device, even offline.
Learn more »
comments
print report bad tab
14 comments total. Showing first comments. show 1 bad comment
+1 reply
systemrules 10 Jan 05, 2004 07:00 PM

perfect

+1 reply
rmwaters3000 195 Mar 23, 2005 07:00 PM

I play it and it sounds perfect.

guest
You may want to rate the tab now too:
select rating
Wanna post a correction for this tab? Suggest correction