Oops, an error
Loading. Please wait.
We have an official Question tab made by UG professional guitarists. Check out the tab »
×
11,272 views 6 this week
1 commentread comment
1 2 3 4 5
x 3
add to favorites
×
Save as Personal and add changes to this tab that will be seen only by you. Learn more ›
×
You can save this tab as Personal to edit and correct it or add notes. All changes will be seen only by you. Learn more »
launch autoscroll
font size
0
reset
how to read this tab
guitar tuner
backing track
0:00
0:00
edit
Autoscroll
slow
fast
+/-
esc
set tempo
stop
Author
Song:Question!
Artist:System of a Down
Album:Mezmerize

Tabbed by ben3296(bptrules@hotmail.com)

Q=184
The time signatures can be confusing!

Guitar 1 - acoustic, standard tuning (EBDGAE) - played by Serj :)
Guitar 2 - distortion, drop C tuning (DAFCGC) (drop D, then down a step) - played by Daron :)



Intro
-----
Guitar 1
   9/16
E-|0-----------------|0-----------------|0-----------------|0-----------------|
B-|--0-------0-------|--0-------0-------|--0-------0-------|--0-------0-------|
G-|----12--12--12--12|----12--12--12--12|----12--12--12--12|----12--12--12--12|
D-|------10------10--|------10------10--|------10------10--|------10------10--|
A-|------------------|------------------|------------------|------------------|
E-|------------------|------------------|------------------|------------------|

E-|0-----------------|0-----------------|0-----------------|0---------0-------|
B-|--0-------0-------|--0-------0-------|--0-------0-------|--0-------0-------|
G-|----12--12--12--12|----12--12--12--12|----12--12--12--12|----12----12------|
D-|------10------10--|------10------10--|------10------10--|------10--9-------|
A-|------------------|------------------|------------------|----------12------|
E-|------------------|------------------|------------------|----------0-------|



Riff
----
Guitar 1
     5/4
E-| |0---0--0---0-0-0-0-0-|0---0--0---0-0-0-0-0-| |
B-|o|0---0--0---0-0-0-0-0-|0---0--0---0-0-0-0-0-|o|
G-| |4---4--4---4-4-4-4-4-|4---4--4---4-4-4-4-4-| |
D-| |2---2--2---2-2-2-2-2-|2---2--2---2-2-2-2-2-| |
A-|o|2---2--2---2-2-2-2-2-|2---2--2---2-2-2-2-2-|o|
E-| |0---0--0---0-0-0-0-0-|0---0--0---0-0-0-0-0-| |
                          |                     | |
Guitar 2                  |                     | |
D-| |---------------------|---------------------| |
A-|o|---------------------|---------------------|o|
F-| |---------------------|---------------------| |
C-| |4---11-9---7-7-9-6-7-|4---11-9---7-7-9-6-7-| |
G-|o|4---11-9---7-7-9-6-7-|4---11-9---7-7-9-6-7-|o|
C-| |4---11-9---7-7-9-6-7-|4---11-9---7-7-9-6-7-| |


Guitar 1
     5/4
E-| |0----0--0---0-0-0-0-0-|0----0--0---0-0-0-0-0-| |
B-|o|0----0--0---0-0-0-0-0-|0----0--0---0-0-0-0-0-|o|
G-| |4----4--4---4-4-4-4-4-|4----4--4---4-4-4-4-4-| |
D-| |2----2--2---2-2-2-2-2-|2----2--2---2-2-2-2-2-| |
A-|o|2----2--2---2-2-2-2-2-|2----2--2---2-2-2-2-2-|o|
E-| |0----0--0---0-0-0-0-0-|0----0--0---0-0-0-0-0-| |
                           |                      | |
Guitar 2                   |                      | |
D-| |----------------------|----------------------| |
A-|o|----------------------|----------------------|o|
F-| |----------------------|----------------------| |
C-| |----------------------|----------------------| |
G-|o|4----11-9-9-7-7-9-6-7-|4----11-9-9-7-7-9-6-7-|o|
C-| |4-44-11-9-9-7-7-9-6-7-|4-44-11-9-9-7-7-9-6-7-| |
     PM__________________________________________


Guitar 1
   9/8
E-|0-----------------|------------------|
B-|0-----------------|------------------|
G-|4-----------------|------------------|
D-|2-----------------|------------------|
A-|2-----------------|------------------|
E-|0-----------------|------------------|
                     |                  |
Guitar 2             |                  |
D-|------------------|------------------|
A-|------------------|------------------|
F-|------------------|------------------|
C-|4-----------------|------------------|
G-|4-----------------|------------------|
C-|4-----------------|------------------|



Verse
-----
Guitar 1
     9/16
E-| |0-----------------|0-----------------|0-----------------|0-----------------|
B-|o|--0-------0-------|--0-------0-------|--0-------0-------|--0-------0-------|
G-| |----12--12--12--12|----12--12--12--12|----12--12--12--12|----12--12--12--12|
D-| |------10------10--|------10------10--|------10------10--|------10------10--|
A-|o|------------------|------------------|------------------|------------------|
E-| |------------------|------------------|------------------|------------------|
                       |                  |                  |                  |
Guitar 2               |                  |                  |                  |
D-| |------------------|------------------|------------------|------------------|
A-|o|------------------|------------------|------------------|------------------|
F-| |------------------|------------------|------------------|------------------|
C-| |------4-----------|------4-----------|------------------|------4-----------|
G-|o|--4-7---7-4-7-4-5-|--4-7---7-4-7-4-5-|------------------|--4-7---7-4-7-4-5-|
C-| |4-----------------|4-----------------|------------------|4-----------------|
     PM___________________________________                    PM_______________


Guitar 1
  3/4
E-|------0-----|------0-----| |           E-|------0-----|------0-----|
B-|----0---0---|----0---0---|o|           B-|----0---0---|----0---0---|
G-|------------|------------| |           G-|------------|------------|
D-|--10------10|--10------10| |           D-|--10------10|--10------10|
A-|12----------|12----------|o|           A-|12----------|12----------|
E-|------------|------------| |           E-|------------|------------|
               |            | | then after  |            |            |
Guitar 2       |            | | the repeat  |            |            |
D-|------------|------------| |           D-|------------|------------|
A-|------------|------------|o|           A-|------------|------------|
F-|------------|------------| |           F-|------------|------------|
C-|------------|------------| |           C-|------------|------------|
G-|2----/9----\|2----/9----\|o|           G-|2----/9----\|2----/9----\|
C-|------------|------------| |           C-|------------|------------|



Pre-Chorus
----------
Guitar 1
     3/4
E-| |3-3-3-3-3---|3-3-3-3-3---|2-2-2-2-2---|2-2-2-2-2---| |
B-|o|0-0-0-0-0---|0-0-0-0-0---|0-0-0-0-0---|0-0-0-0-0---|o|
G-| |0-0-0-0-0---|0-0-0-0-0---|0-0-0-0-0---|0-0-0-0-0---| |
D-| |2-2-2-2-2---|2-2-2-2-2---|2-2-2-2-2---|2-2-2-2-2---| |
A-|o|2-2-2-2-2---|2-2-2-2-2---|2-2-2-2-2---|2-2-2-2-2---|o|
E-| |0-0-0-0-0---|0-0-0-0-0---|0-0-0-0-0---|0-0-0-0-0---| |
                 |            |            |            | |
Guitar 2         |            |            |            | |
D-| |------------|------------|------------|------------| |
A-|o|------------|------------|------------|------------|o|
F-| |------------|------------|------------|------------| |
C-| |4-----------|------------|0-----------|------------| |
G-|o|4-----------|------------|0-----------|------------|o|
C-| |4-----------|------------|0-----------|------------| |



Chorus
------
Guitar 1
     3/4
E-| |0-0-0-0-0---|0-0-0-0-0---|0-0-0-0-0---|0-0-0-0-0---|0-0-0-0-0---|0-0-0-0-0---|
B-|o|0-0-0-0-0---|0-0-0-0-0---|0-0-0-0-0---|0-0-0-0-0---|0-0-0-0-0---|0-0-0-0-0---|
G-| |0-0-0-0-0---|0-0-0-0-0---|0-0-0-0-0---|0-0-0-0-0---|0-0-0-0-0---|0-0-0-0-0---|
D-| |2-2-2-2-2---|2-2-2-2-2---|2-2-2-2-2---|2-2-2-2-2---|2-2-2-2-2---|2-2-2-2-2---|
A-| |2-2-2-2-2---|2-2-2-2-2---|2-2-2-2-2---|2-2-2-2-2---|2-2-2-2-2---|2-2-2-2-2---|
E-| |0-0-0-0-0---|0-0-0-0-0---|0-0-0-0-0---|0-0-0-0-0---|0-0-0-0-0---|0-0-0-0-0---|
                 |            |            |            |            |            |
Guitar 2         |            |            |            |            |            |
D-| |------------|------------|------------|------------|------------|------------|
A-|o|------------|------------|------------|------------|------------|------------|
F-| |------------|------------|------------|------------|------------|------------|
C-| |--------6p4-|--------6p4-|--------6p4-|--------6p4-|--------6p4-|--------6/--|
G-|o|4---4-4-----|4---4-4-----|4---4-4-----|4---4-4-----|4---4-4-----|4---4-4-----|
C-| |4---4-4-----|4---4-4-----|4---4-4-----|4---4-4-----|4---4-4-----|4---4-4-----|
     PM_____      PM_____      PM_____      PM_____      PM_____      PM_____


Guitar 1
   3/4
E-|0-0-0-0--0---|0--0-0-0--0---| |            E-|0---0-0---0-|0-0-0-0-0-0-|
B-|1-1-1-1--1---|1--1-1-1--1---|o|            B-|1---1-1---1-|1-1-1-1-1-1-|
G-|2-2-2-2--2---|2--2-2-2--2---| |            G-|2---2-2---2-|2-2-2-2-2-2-|
D-|2-2-2-2--2---|2--2-2-2--2---| |            D-|2---2-2---2-|2-2-2-2-2-2-|
A-|0-0-0-0--0---|0--0-0-0--0---|o|            A-|0---0-0---0-|0-0-0-0-0-0-|
E-|-------------|--------------| |            E-|------------|------------|
                |              | | then after
Guitar 2        |              | | the repeat 
D-|-------------|--------------| |            D-|------------|------------|
A-|-------------|--------------|o|            A-|------------|------------|
F-|-------------|--------------| |            F-|------------|------------|
C |9-----11h9---|12h9---11h9\--| |            C-|9---9-9---9-|9-9-9-9-9-9-|
G-|9---9------9-|-----9--------|o|            G-|9---9-9---9-|9-9-9-9-9-9-|
C-|9---9------9-|-----9--------| |            C-|9---9-9---9-|9-9-9-9-9-9-|
       PM     PM      PM


Riff
----
Guitar 1
   5/4
E-|0---0--0---0-0-0-0-0-|0---0--0---0-0-0-0-0-|
B-|0---0--0---0-0-0-0-0-|0---0--0---0-0-0-0-0-|
G-|4---4--4---4-4-4-4-4-|4---4--4---4-4-4-4-4-|
D-|2---2--2---2-2-2-2-2-|2---2--2---2-2-2-2-2-|
A-|2---2--2---2-2-2-2-2-|2---2--2---2-2-2-2-2-|
E-|0---0--0---0-0-0-0-0-|0---0--0---0-0-0-0-0-|
                        |                     |
Guitar 2                |                     |
D-|---------------------|---------------------|
A-|---------------------|---------------------|
F-|---------------------|---------------------|
C-|4---11-9---7-7-9-6-7-|4---11-9---7-7-9-6-7-|
G-|4---11-9---7-7-9-6-7-|4---11-9---7-7-9-6-7-|
C-|4---11-9---7-7-9-6-7-|4---11-9---7-7-9-6-7-|
 

then repeat the verse, pre-chorus and chorus with all repeats included

and after that:

Interlude
---------
Guitar 1
   3/4
E-|0-----|------|------|------|
B-|0-----|------|------|------|
G-|0-----|------|------|------|
D-|2-----|------|------|------|
A-|2-----|------|------|------|
E-|0-----|------|------|------|
         |      |      |      |
Guitar 2 |      |      |      |
D-|------|------|------|------|
A-|------|------|------|------|
F-|------|------|------|------|
C-|4-----|------|------|------|
G-|4-----|------|------|------|
C-|4-----|------|------|------|



Riff
----
Guitar 1
     5/4
E-| |0---0--0---0-0-0-0-0-|0---0--0---0-0-0-0-0-| |
B-|o|0---0--0---0-0-0-0-0-|0---0--0---0-0-0-0-0-|o|
G-| |4---4--4---4-4-4-4-4-|4---4--4---4-4-4-4-4-| |
D-| |2---2--2---2-2-2-2-2-|2---2--2---2-2-2-2-2-| |
A-|o|2---2--2---2-2-2-2-2-|2---2--2---2-2-2-2-2-|o|
E-| |0---0--0---0-0-0-0-0-|0---0--0---0-0-0-0-0-| |
                          |                     | |
Guitar 2                  |                     | |
D-| |---------------------|---------------------| |
A-|o|---------------------|---------------------|o|
F-| |---------------------|---------------------| |
C-| |4---11-9---7-7-9-6-7-|4---11-9---7-7-9-6-7-| |
G-|o|4---11-9---7-7-9-6-7-|4---11-9---7-7-9-6-7-|o|
C-| |4---11-9---7-7-9-6-7-|4---11-9---7-7-9-6-7-| |


Guitar 1
     5/4
E-| |0----0--0---0-0-0-0-0-|0----0--0---0-0-0-0-0-| |
B-|o|0----0--0---0-0-0-0-0-|0----0--0---0-0-0-0-0-|o|
G-| |4----4--4---4-4-4-4-4-|4----4--4---4-4-4-4-4-| |
D-| |2----2--2---2-2-2-2-2-|2----2--2---2-2-2-2-2-| |
A-|o|2----2--2---2-2-2-2-2-|2----2--2---2-2-2-2-2-|o|
E-| |0----0--0---0-0-0-0-0-|0----0--0---0-0-0-0-0-| |
                           |                      | |
Guitar 2                   |                      | |
D-| |----------------------|----------------------| |
A-|o|----------------------|----------------------|o|
F-| |----------------------|----------------------| |
C-| |----------------------|----------------------| |
G-|o|4----11-9-9-7-7-9-6-7-|4----11-9-9-7-7-9-6-7-|o|
C-| |4-44-11-9-9-7-7-9-6-7-|4-44-11-9-9-7-7-9-6-7-| |
     PM__________________________________________


Guitar 1
     5/4
E-| |0----0-----0----0-0--0--0--0-|0----0-----0----0-0--0--0--0-| |
B-|o|0----0-----0----0-0--0--0--0-|0----0-----0----0-0--0--0--0-|o|
G-| |4----4-----4----4-4--4--4--4-|4----4-----4----4-4--4--4--4-| |
D-| |2----2-----2----2-2--2--2--2-|2----2-----2----2-2--2--2--2-| |
A-|o|2----2-----2----2-2--2--2--2-|2----2-----2----2-2--2--2--2-|o|
E-| |0----0-----0----0-0--0--0--0-|0----0-----0----0-0--0--0--0-| |
                                  |                             | |
Guitar 2(all sixteenths)          |                             | |
D-| |-----------------------------|-----------------------------| |
A-|o|-----------------------------|-----------------------------|o|
F-| |-----------------------------|-----------------------------| |
C-| |-----------------------------|-----------------------------| |
G-|o|-----------------------------|-----------------------------|o|
C-| |4444-11-11-9999-7777-99-66-77|4444-11-11-9999-7777-99-66-77| |
     PM_________________________________________________________


Guitar 1
     5/4
E-| |0---0--0---0-0-0-0-0-|0---0--0---0-0-0-0-0-| |
B-|o|0---0--0---0-0-0-0-0-|0---0--0---0-0-0-0-0-|o|
G-| |4---4--4---4-4-4-4-4-|4---4--4---4-4-4-4-4-| |
D-| |2---2--2---2-2-2-2-2-|2---2--2---2-2-2-2-2-| |
A-|o|2---2--2---2-2-2-2-2-|2---2--2---2-2-2-2-2-|o|
E-| |0---0--0---0-0-0-0-0-|0---0--0---0-0-0-0-0-| |
                          |                     | |
Guitar 2                  |                     | |
D-| |---------------------|---------------------| |
A-|o|---------------------|---------------------|o|
F-| |---------------------|---------------------| |
C-| |4---11-9---7-7-9-6-7-|4---11-9---7-7-9-6-7-| |
G-|o|4---11-9---7-7-9-6-7-|4---11-9---7-7-9-6-7-|o|
C-| |4---11-9---7-7-9-6-7-|4---11-9---7-7-9-6-7-| |



Interlude
---------
Guitar 2
   4/4
D-|----------------|----------------|
A-|----------------|----------------|
F-|----------------|----------------|
C-|----------------|----------------|
G-|----------------|----------------|
C-|4-44440-4-44440-|4-44440-4-44440-|
   PM______________________________



Chorus
------
Guitar 1
     4/4
E-| |0-0-0-0-0-0-0-0-|0-0-0-0-0-0-0-0-|0-0-0-0-0-0-0-0-|0-0-0-0-0-0-0-0-|
B-|o|0-0-0-0-0-0-0-0-|0-0-0-0-0-0-0-0-|0-0-0-0-0-0-0-0-|0-0-0-0-0-0-0-0-|
G-| |0-0-0-0-0-0-0-0-|0-0-0-0-0-0-0-0-|0-0-0-0-0-0-0-0-|0-0-0-0-0-0-0-0-|
D-| |2-2-2-2-2-2-2-2-|2-2-2-2-2-2-2-2-|2-2-2-2-2-2-2-2-|2-2-2-2-2-2-2-2-|
A-|o|2-2-2-2-2-2-2-2-|2-2-2-2-2-2-2-2-|2-2-2-2-2-2-2-2-|2-2-2-2-2-2-2-2-|
E-| |0-0-0-0-0-0-0-0-|0-0-0-0-0-0-0-0-|0-0-0-0-0-0-0-0-|0-0-0-0-0-0-0-0-|
                     |                |                |                |
Guitar 2             |                |                |                |
D-| |----------------|----------------|----------------|----------------|
A-|o|----------------|----------------|----------------|----------------|
F-| |----------------|----------------|----------------|----------------|
C-| |----------------|----------------|----------------|----------------|
G-|o|----------------|----------------|----------------|----------------|
C-| |4-44440-4-44440-|4-44440-4-44440-|4-44440-4-44440-|4-44440-4-44440-|
   PM__________________________________________________________________


Guitar 1
     4/4
E-| |0-0-0-0-0-0-0-0-|0-0-0-0-0-0-0-0-|0-0-0-0-0-0-0-0-|0-0-0-0-0-0-0-0-| |
B-|o|0-0-0-0-0-0-0-0-|0-0-0-0-0-0-0-0-|1-1-1-1-1-1-1-1-|1-1-1-1-1-1-1-1-|o|
G-| |0-0-0-0-0-0-0-0-|0-0-0-0-0-0-0-0-|2-2-2-2-2-2-2-2-|2-2-2-2-2-2-2-2-| |
D-| |2-2-2-2-2-2-2-2-|2-2-2-2-2-2-2-2-|2-2-2-2-2-2-2-2-|2-2-2-2-2-2-2-2-| |
A-|o|2-2-2-2-2-2-2-2-|2-2-2-2-2-2-2-2-|0-0-0-0-0-0-0-0-|0-0-0-0-0-0-0-0-|o|
E-| |0-0-0-0-0-0-0-0-|0-0-0-0-0-0-0-0-|----------------|----------------| |
                     |                |                |                | |
Guitar 2             |                |                |                | |
D-| |----------------|----------------|----------------|----------------| |
A-|o|----------------|----------------|----------------|----------------|o|
F-| |----------------|----------------|----------------|----------------| |
C-| |----------------|----------------|----------------|----------------| |
G-|o|----------------|----------------|2222222222222222|2222222222222222|o|
C-| |4-44440-4-44440-|4-44440-4-44440-|----------------|----------------| |
   PM__________________________________________________________________



Guitar 1
     4/4
E-|0-0-0-0-0-0-0-0-|0-0-0-0-0-0-0-0-|
B-|1-1-1-1-1-1-1-1-|1-1-1-1-1-1-1-1-|
G-|2-2-2-2-2-2-2-2-|2-2-2-2-2-2-2-2-|
D-|2-2-2-2-2-2-2-2-|2-2-2-2-2-2-2-2-|
A-|0-0-0-0-0-0-0-0-|0-0-0-0-0-0-0-0-|
E-|----------------|----------------|
                   |                |
Guitar 2           |                |
D-|----------------|----------------|
A-|----------------|----------------|
F-|----------------|----------------|
C-|----------------|----------------|
G-|2222222222222222|2222222222222222|
C-|----------------|----------------|
   PM______________________________|



Riff
----
Guitar 1
     5/4
E-| |0---0--0---0-0-0-0-0-|0---0--0---0-0-0-0-0-| |
B-|o|0---0--0---0-0-0-0-0-|0---0--0---0-0-0-0-0-|o|
G-| |4---4--4---4-4-4-4-4-|4---4--4---4-4-4-4-4-| |
D-| |2---2--2---2-2-2-2-2-|2---2--2---2-2-2-2-2-| |
A-|o|2---2--2---2-2-2-2-2-|2---2--2---2-2-2-2-2-|o|
E-| |0---0--0---0-0-0-0-0-|0---0--0---0-0-0-0-0-| |
                          |                     | |
Guitar 2                  |                     | |
D-| |---------------------|---------------------| |
A-|o|---------------------|---------------------|o|
F-| |---------------------|---------------------| |
C-| |4---11-9---7-7-9-6-7-|4---11-9---7-7-9-6-7-| |
G-|o|4---11-9---7-7-9-6-7-|4---11-9---7-7-9-6-7-|o|
C-| |4---11-9---7-7-9-6-7-|4---11-9---7-7-9-6-7-| |




Outro
-----
Guitar 1
   9/16
E-|----------------0-|----------------0-|----------------0-|--------0---------|
B-|0-------0---------|0-------0---------|0-------0---------|0-------0---------|
G-|--12--12--12--12--|--12--12--12--12--|--12--12--12--12--|--12----12--------|
D-|----10------10----|----10------10----|----10------10----|----10--9---------|
A-|------------------|------------------|------------------|--------12--------|
E-|------------------|------------------|------------------|--------0---------|
                     |                  |                  |                  |
Guitar 2             |                  |                  |                  |
D-|------------------|------------------|------------------|------------------|
A-|------------------|------------------|------------------|------------------|
F-|------------------|------------------|------------------|------------------|
C-|4-----------------|------------------|------------------|------------------|
G-|4-----------------|------------------|------------------|------------------|
C-|4-----------------|------------------|------------------|------------------|


Riff
----
Guitar 1
     5/4
E-|0---0--0---0-0-0-0-0-|0---0--0---0-0-0-0-0-|
B-|0---0--0---0-0-0-0-0-|0---0--0---0-0-0-0-0-|
G-|4---4--4---4-4-4-4-4-|4---4--4---4-4-4-4-4-|
D-|2---2--2---2-2-2-2-2-|2---2--2---2-2-2-2-2-|
A-|2---2--2---2-2-2-2-2-|2---2--2---2-2-2-2-2-|
E-|0---0--0---0-0-0-0-0-|0---0--0---0-0-0-0-0-|
                        |                     |
Guitar 2                |                     |
D-|---------------------|---------------------|
A-|---------------------|---------------------|
F-|---------------------|---------------------|
C-|4---11-9---7-7-9-6-7-|4---11-9---7-7-9-6-7-|
G-|4---11-9---7-7-9-6-7-|4---11-9---7-7-9-6-7-|
C-|4---11-9---7-7-9-6-7-|4---11-9---7-7-9-6-7-|



Hope this helps :)
Please comment and rate
Sorry for any mistakes - please correct me
Thanks :)

            
            
Suggest correction
Creating personal tab
Creating personal tab
You can edit any tab online and save it as your Personal.

You can edit, replace or remove any tab part or add personal notes – all changes will be seen only by you.

Personal tabs can be accessed anytime from any device, even offline.
Learn more »
Give kudos to tab author, rate the tab!
1 2 3 4 5
comments
print report bad tab
1 comment total.
-1 reply
Serj_Tankian420 72 Dec 11, 2011 01:33 PM

Excellent job exept for the acoustic guitar tremolo picking part that goes:
X2
E-|5---7--5-7-3---5-7-8-|
B-|7---8--7-8-5---7-8-10|
G-|---------------------|
D-|---------------------|
A-|---------------------|
E-|---------------------|
When we, When we go...

then (when Serj screams)

E-|//15|
B-|//17|
G-|----|
D-|----|
A-|----|
E-|----|

guest
You may want to rate the tab now too:
select rating
Wanna post a correction for this tab? Suggest correction