Oops, an error
Loading. Please wait.
We have an official Revenga tab made by UG professional guitarists. Check out the tab »
×
2,215 views 3 this week
2 commentsread comments
1 2 3 4 5
1 last vote to show rating
add to favorites
×
Save as Personal and add changes to this tab that will be seen only by you. Learn more ›
×
You can save this tab as Personal to edit and correct it or add notes. All changes will be seen only by you. Learn more »
launch autoscroll
font size
0
reset
guitar tuner
backing track
0:00
0:00
edit
Autoscroll
slow
fast
+/-
esc
set tempo
stop
SOAD-Revenga-Mezmerize
 3:50 
Dropped D tuning:(D-A-D-G)Low to High

kk.

Optional Intro
|-Intro thingy-|   (---------------------)
|--------------|   (---------------------)
|--------------|OR:(---------------------)
|--------------|   (--0---6---8---7-6-5--)

Intro 0:13[MAIN RIFF]
[--------------------------------------
[--------------------------------------
[--------------------------------------
[-0-00-0-00-0-00-0-00-0-00-0-00-6-6-6--

--------------------------------------]
--------------------------------------]
--------------------------------------]
-0-00-0-00-0-00-0-00-663-663-663-663--]X2](Entire Main Riff)

Verse 0:26
|--------------------------------------------------------------|
|--------------------------------------------------------------|
|--------------------------------------------------------------|
|-00003.-00003.-00003.-00006.--00003.-00003.-0000-9-11-9-7-6---|

|------------------------------|
|------------------------------|
|------------------------------|
|-00003.-00003.-00003.-00006.--|

|-------------------------------|
|-------------------------------|
|-------------------------------|
|-00003.-00003.-0000-6-7-8-9\8--|

Chorus 0:40
[---------------------------------------------------------
[---------------------------------------------------------
[---------------------------------------------------------
[-6-0-0-0-0-0-0-6-0-0-0-0-0-0-5-0-0-0-0-0-0-5-0-0-0-0-0-0-
"All my sweet revenge..."

-------------------------------------------------------]
-------------------------------------------------------]
-------------------------------------------------------]
-3-0-0-0-0-0-0-3-0-0-3-2-1--1-1-1-1-1-1-0-0-0-0-0-0-0--]X2]

Verse 1:07

|--------------------------------------------------------------|
|--------------------------------------------------------------|
|--------------------------------------------------------------|
|-00003.-00003.-00003.-00006.--00003.-00003.-0000-9-11-9-7-6---|

|------------------------------|
|------------------------------|
|------------------------------|
|-00003.-00003.-00003.-00006.--|

|-------------------------------|
|-------------------------------|
|-------------------------------|
|-00003.-00003.-0000-6-7-8-9\8--|

Chorus 1:27

[---------------------------------------------------------
[---------------------------------------------------------
[---------------------------------------------------------
[-6-0-0-0-0-0-0-6-0-0-0-0-0-0-5-0-0-0-0-0-0-5-0-0-0-0-0-0-
"All my sweet revenge..."

-------------------------------------------------------]
-------------------------------------------------------]
-------------------------------------------------------]
-3-0-0-0-0-0-0-3-0-0-3-2-1--1-1-1-1-1-1-0-0-0-0-0-0-0--]X2]

Bridge 1:49[Main Riff=1x]
[--------------------------------------
[--------------------------------------
[--------------------------------------
[-0-00-0-00-0-00-0-00-0-00-0-00-6-6-6--

--------------------------------------]
--------------------------------------]
--------------------------------------]
-0-00-0-00-0-00-0-00-663-663-663-663--]X2]

2:03
|---------------|
|-[SHORT-PAUSE]-|
|---------------|
|---------------|
"I saw her laugh..."

2:31
[----------------]   [-----------------]   [-----------------]  
[----------------]   [-----------------]   [-----------------]  
[----------------]   [-----------------]   [-----------------]  
[5-5-5-5-5-5-5-5-]X2][-7-7-7-7-7-7-7-7-]X2][-8-8-8-8-8-8-8-8-]X2]
"..Awaaaaay..."

|---------------------------------|
|---------------------------------|
|---------------------------------|
|-5-5-5-5-5-5-5-5-3-3-3-3-3-3-3-3-|X2](All of that since 2:31)

[---------------------------------------------------------
[---------------------------------------------------------
[---------------------------------------------------------
[-6-0-0-0-0-0-0-6-0-0-0-0-0-0-5-0-0-0-0-0-0-5-0-0-0-0-0-0-
"All my sweet revenge..."

-------------------------------------------------------]
-------------------------------------------------------]
-------------------------------------------------------]
-3-0-0-0-0-0-0-3-0-0-3-2-1--1-1-1-1-1-1-0-0-0-0-0-0-0--]X2]

3:26
|-------------------------------------------------------------|
|-------------------------------------------------------------|
|-------------------------------------------------------------|
|-00003.-00003.-00003.-00006.--00003.-00003.-0000-9-12-11-9-8-|

Im sure u can figure it out from there ;)








            
            
Suggest correction
Creating personal tab
Creating personal tab
You can edit any tab online and save it as your Personal.

You can edit, replace or remove any tab part or add personal notes – all changes will be seen only by you.

Personal tabs can be accessed anytime from any device, even offline.
Learn more »
Give kudos to tab author, rate the tab!
1 2 3 4 5
comments
print report bad tab
2 comments total.
0 reply
totalxanarchy 212 Jan 23, 2008 12:58 PM

tuning is in Db

0 reply
SOADriff 300 Jul 04, 2009 10:16 PM

sorry but more than half this wrong especially the 0003 0003 part, its supposed to just be open 0's.

guest
You may want to rate the tab now too:
select rating
Wanna post a correction for this tab? Suggest correction