Oops, an error
Loading. Please wait.
We have an official Roulette tab made by UG professional guitarists. Check out the tab »
×

Roulette tab

version 13
version 13

Whole song

445 views 1 this week
no commentswrite comment
1 2 3 4 5
3 more votes to show rating
add to favorites
×
Save as Personal and add changes to this tab that will be seen only by you. Learn more ›
×
You can save this tab as Personal to edit and correct it or add notes. All changes will be seen only by you. Learn more »
launch autoscroll
font size
0
reset
how to read this tab
guitar tuner
edit
Autoscroll
slow
fast
+/-
esc
set tempo
stop
Author
About this tab version
It's in standard tuning rather than drop C. Was this info helpful? Yes No
-------------------------------------------------------------------------------
                             Roulette - System of a Down
-------------------------------------------------------------------------------
Tabbed by: Garrett Guillen

Tuning: Standard

This is one of my favorites by them and I thought that I'd try and figure it out in standard so I didn't have to
tune my guitar down to drop C. This was all done by ear and sounds right to me. If you have any corrections or 
complaints, comment them below and I'll fix it.

Verse:

      Cm                   D#        A#       C#               G#       A#
e|---------------------------------------------------------------------------|
B|-----4--------4----------8-------------------------------------------------|
G|-----------------------------------7--------10------10--------5--------7---|
D|---------------------------------------------------------------------------|
A|-3------3-3------3-3/6-------6---------------------------------------------|
E|--------------------------------6----6-6/9------9-9-----9-9\4----4-4/6----6|

Chorus:

     Cm                 G                 A#                G#       A#
e|---------------------------------------------------------------------------|
B|----4--------4-------------------------------------------------------------|
G|-----------------------4-------4---------7-------7--------5--------7-------|
D|---------------------------------------------------------------------------|
A|-3-----3-3------3----------------------------------------------------------|
E|-------------------3------3-3-----3-3/6-----6-6----6-6\4-----4-4/6---6-----|

Solo:

e|-8--8--10--11--10--11--13--10--11--13--11--10--8--10--11--10--8--8----|
B|----------------------------------------------------------------------|
G|----------------------------------------------------------------------|
D|----------------------------------------------------------------------|
A|----------------------------------------------------------------------|
E|----------------------------------------------------------------------|


e|------------------------------------------------3/4\3--3--1--1--------|
B|-8--8--8--9--11--9--8--6--8--9--8--6--6---------4/6\4--4--3--3--4--4--|
G|-------------------------------------------3--3-----------------5--5--|
D|----------------------------------------------------------------------|
A|----------------------------------------------------------------------|
E|----------------------------------------------------------------------|



************************************
| \   slide down
| h   hammer-on
| p   pull-off 
| ~   vibrato
| +   harmonic
| x   Mute note
| b   Bend
| pb  Pre-bend
| br  Bend release
| pbr Pre-bend release
| brb Bend release bend

************************************

            
            
Suggest correction
Creating personal tab
Creating personal tab
You can edit any tab online and save it as your Personal.

You can edit, replace or remove any tab part or add personal notes – all changes will be seen only by you.

Personal tabs can be accessed anytime from any device, even offline.
Learn more »
Give kudos to tab author, rate the tab!
1 2 3 4 5
comments
print report bad tab
guest
You may want to rate the tab now too:
select rating
Wanna post a correction for this tab? Suggest correction