Oops, an error
Loading. Please wait.
We have an official Shes Like Heroin tab made by UG professional guitarists. Check out the tab »
×
4,987 views 3 this week
1 commentread comment
1 2 3 4 5
x 3
add to favorites
×
Save as Personal and add changes to this tab that will be seen only by you. Learn more ›
×
You can save this tab as Personal to edit and correct it or add notes. All changes will be seen only by you. Learn more »
launch autoscroll
font size
0
reset
how to read this tab
guitar tuner
edit
Autoscroll
slow
fast
+/-
esc
set tempo
stop
Difficulty
-------------------------------------------------------------------------------
                             She's like herion
                             System of a down
-------------------------------------------------------------------------------
Tabbed by:BladedFret
Email:RikBlade@hotmail.com

Tuning:Db

e|---------------------------------------------------------------------------|
B|---------------------------------------------------------------------------|
G|-----7-6----------------------------7-6------------------------------------|
D|------------7-6----7-6-------------------7-6---7-6-------------------------|
A|-5----------------------------5--------------------------------------------|
E|---------------------------------------------------------------------------|

e|---------------------------------------------------------------------------|
B|---------------------------------------------------------------------------|
G|--------6-5----------------------------------6-5---------------------------|
D|--------------6-5---6-5------------------------------6-5-------6-5---------|
A|--4------------------------------------4-----------------------------------|
E|---------------------------------------------------------------------------|

e|---------------------------------------------------------------------------|
B|---------------------------------------------------------------------------|
G|---------------------------------------------------------------------------|
D|-7-7-7-----6-6-6------6-6-6------5-5-5-------------------------------------| X2
A|-5-5-5-----4-4-4------4-4-4------3-3-3-------------------------------------|
E|---------------------------------------------------------------------------|

e|---------------------------------------------------------------------------|
B|---------------------------------------------------------------------------|
G|---------------------------------------------------------------------------|
D|--5-5---3--5---6-6---5--3--------------------------------------------------|
A|--5-5---3--5---6-6---5--3--------------------------------------------------|
E|--5-5---3--5---6-6---5--3--------------------------------------------------|  
I'm Not sure about this part^

            
            
Suggest correction
Creating personal tab
Creating personal tab
You can edit any tab online and save it as your Personal.

You can edit, replace or remove any tab part or add personal notes – all changes will be seen only by you.

Personal tabs can be accessed anytime from any device, even offline.
Learn more »
Give kudos to tab author, rate the tab!
1 2 3 4 5
comments
print report bad tab
1 comment total.
0 reply
The_Foo_Fighter 91 Nov 23, 2005 09:52 AM

pretty accurate

gj

guest
Wanna post a correction for this tab? Suggest correction