Oops, an error
Loading. Please wait.

Suite Pee bass

version 2
version 2

Whole song

Interactive

8,748 views 12 this week
5 commentsread comments
1 2 3 4 5
x 17
add to favorites
×
Save as Personal and add changes to this tab that will be seen only by you. Learn more ›
×
You can save this tab as Personal to edit and correct it or add notes. All changes will be seen only by you. Learn more »
launch autoscroll
font size
0
reset
guitar tuner
backing track
0:00
0:00
edit
Autoscroll
slow
fast
+/-
esc
set tempo
stop
Band - System Of A Down
  Song - Suite Pee
   Album - System Of A Down (1998)
    Tuning - Drop C (C-G-C-F)

   The other tab for this was for both 5 string and 4 string so there were some mess ups
the 4 string part. Also, it didn't give you amounts of times to play stuff or whatever
here we go...

INTRO 1 - just guitar. [0:00 - 0:09]

INTRO 2 - x1 [0:10 - 0:19]
F --------------------------------|    A lot of people think the last one at
C --------------------------------|    / the end of these two riffs should 
G --------------------------------|   / be a 5 or something. It's not - look
C -0000101-0000101-0000101-0000101| _/ up a live video...
                                     |
F --------------------------------|  |
C --------------------------------|  |
G --------------------------------|  |
C -0000101-0000101-0000101-0000101| _|

VERSE - x4 [0:20 - 0:29]
F -----------------------------------------------------------|
C -----------------------------------------------------------|              G -----------------------------------------------------------| 
C -12-12-12-12-13-12-13--12-12-12-12-13-12-13----------------|
                                    \
CHORUS - x1 [0:30 - 0:39]             Spacing is to help you read - they
F --------------------------------|  are 12's and 13's
C --------------------------------|
G --------------------------------|
C -0000101-0000101-0000101-0000101|

F --------------------------------|
C --------------------------------|
G --------------------------------|
C -0000101-0000101-0000101-0000101|

VERSE - x4 [0:40 - 0:49]
F -------------------------------------------|
C -------------------------------------------|
G -------------------------------------------|
C -12-12-12-12-13-12-13--12-12-12-12-13-12-13|

CHORUS - x1 [0:50 - 1:00]
F --------------------------------|
C --------------------------------|
G --------------------------------|
C -0000101-0000101-0000101-0000101|

F --------------------------------|
C --------------------------------|
G --------------------------------|
C -0000101-0000101-0000101-0000101|

PRE INTERLUDE - x6 [1:01 - 1:16]
F --------------|
C --------------|
G --------------|
C -0-1-0-0-5-4~-|

INTERLUDE - x4 [1:17 - 1:28]
F --------------|
C --------------|
G --------------|
C -0-1-0-0-5-4~-|

*Pause about 2 seconds for guitar thingy*

INTERLUDE - x4 [1:30 - 1:43]
F --------------|
C --------------|
G --------------|
C -0-1-0-0-5-4~-|

BRIDGE - x8 [1:44 - 2:08]
F --------------|
C --------------|
G --------------|
C -0-1-0-0-5-4~-| *Do not play the 4 on the last time*

*Wait a sec for Sej to yell*

CHORUS - x1 [2:10 - 2:19]
F --------------------------------|
C --------------------------------|
G --------------------------------|
C -0000101-0000101-0000101-0000101|

F --------------------------------|
C --------------------------------|
G --------------------------------|
C -0000101-0000101-0000101-0000101|

OUTRO - x1 [2:20 - 2:33]
F -------------------------------------------|
C -------------------------------------------|
G -------------------------------------------|
C -12-12-12-12-13-12-13--12-12-12-12-13-12-13|

F -------------------------------------------|
C -------------------------------------------|
G -------------------------------------------|
C -12-12-12-12-13-12-13--12-12-12-12-13-12-13|

F --------------------------------|
C --------------------------------|
G --------------------------------|
C -0000101-0000101-0000101-0000101|

 There it is. Enjoy and rate it up!

            
            
Suggest correction
Creating personal tab
Creating personal tab
You can edit any tab online and save it as your Personal.

You can edit, replace or remove any tab part or add personal notes – all changes will be seen only by you.

Personal tabs can be accessed anytime from any device, even offline.
Learn more »
comments
print report bad tab
5 comments total. Showing first comments.
-2 reply
Maitinin 19,543 May 08, 2007 08:39 AM

whoah this is confusing! correct all the way, but it's very hard to see it through!

+1 reply
skate-fiend 30 Mar 17, 2008 11:30 AM

Awesome tab!
Great job, 5/5

0 reply
tommycoe 10 May 26, 2008 07:46 AM

Awesome mate, nice job!!

guest
You may want to rate the tab now too:
select rating
Wanna post a correction for this tab? Suggest correction