Oops, an error
Loading. Please wait.

Toxicity Live solo tab

422 views 1 this week
1 commentread comment
1 2 3 4 5
2 more votes to show rating
add to favorites
×
Save as Personal and add changes to this tab that will be seen only by you. Learn more ›
×
You can save this tab as Personal to edit and correct it or add notes. All changes will be seen only by you. Learn more »
launch autoscroll
font size
0
reset
how to read this tab
guitar tuner
edit
Autoscroll
slow
fast
+/-
esc
set tempo
stop
-------------------------------------------------------------------------------
                             Toxicity (LIVE)- System Of A Down
-------------------------------------------------------------------------------
Tabbed by: LehHay95


Tuning: Drop C

This is Daron's impro during "Toxicity" he played during their tour in 2011.
For this one, I used their performance at Rock In Rio

D|----------------------------------------------------------------------|
A|----------------------------------------------------------------------|
F|---------10h12--12b--12b--12--10--12-10h12p9--10--9h10p9--------------|
C|--10h12--------------------------------------------------10h12--------|
G|----------------------------------------------------------------------|
C|----------------------------------------------------------------------|

D|--------------------13-------------------|
A|-----------------------------------------|
F|---------10h12-12b-----12b--10h12p10-----|
C|--10h12----------------------------------|
G|-----------------------------------------|
C|-----------------------------------------|

D|---------------------------------------------------------------------------|
A|---------------------------------------------------------------------------|
F|-10-10--10-9-10-10--10-9-12-10---10-10-9-10-9-10-10-9-10-12-10--10-9-------|
C|---------------------------------------------------------------------10----|
G|---------------------------------------------------------------------------|
C|---------------------------------------------------------------------------|

D|----------------------------------------------------8-------8--------------|
A|-------10h11p10----10-10-10--10-10--10-8-10-10--10----11-10---11-10h11p10--|
F|-10h12---------------------------------------------------------------------|
C|---------------------------------------------------------------------------|
G|---------------------------------------------------------------------------|
C|---------------------------------------------------------------------------|

D|--------------------------------9b-8----------|
A|----------------------------------------------|
F|--9-10-10b-10b-10b--9-10-10b-10---------------|
C|----------------------------------------------|
G|----------------------------------------------|
C|----------------------------------------------|

Instead of bending G-10-, you can also play A-8- without bending


************************************
| h   hammer-on
| p   pull-off
| b   Bend

************************************

            
            
Suggest correction
Creating personal tab
Creating personal tab
You can edit any tab online and save it as your Personal.

You can edit, replace or remove any tab part or add personal notes – all changes will be seen only by you.

Personal tabs can be accessed anytime from any device, even offline.
Learn more »
Give kudos to tab author, rate the tab!
1 2 3 4 5
comments
print report bad tab
1 comment total.
0 reply
SOADknot 393 Nov 30, 2015 01:42 PM

Awesome tab !

guest
You may want to rate the tab now too:
select rating
Wanna post a correction for this tab? Suggest correction