Oops, an error
Loading. Please wait.
We have an official Violent Pornography tab made by UG professional guitarists. Check out the tab »
×
27,354 views 15 this week
3 commentsread comments
1 2 3 4 5
x 6
add to favorites
×
Save as Personal and add changes to this tab that will be seen only by you. Learn more ›
×
You can save this tab as Personal to edit and correct it or add notes. All changes will be seen only by you. Learn more »
launch autoscroll
font size
0
reset
how to read this tab
guitar tuner
backing track
0:00
0:00
edit
Autoscroll
slow
fast
+/-
esc
set tempo
stop
Violent Pornography - System of a Down
Tuning: Drop C# (C# G# C# F# A# D#)

Intro:
   H   H   Q Q W       H   Q Q H   Q Q Q Q W       W       H   H
|------------------------------------------------------------------|
|------------------------------------------------------------------|
|----------------------------------------------------------7-------|
|------4---5-5h7-------8---7-5-8---7-5-4b5r4-------8-----------8---|
|------------------------------------------------------------------|
|--0---------------------------------------------------------------|

   H   H   Q Q W       H   Q Q H   Q Q Q Q W       W       H   H
|------------------------------------------------------------------|
|------------------------------------------------------------------|
|----------------------------------------------------------7-------|
|------4---5-5h7-------8---7-5-8---7-5-4b5r4-------8-----------8---|
|--5---------------------------------------------------------------|
|--0---------------------------------------------------------------|


Verse 1 part 1:
  E    E             E E             E E             E E             E
|---|-------------------------------------------------------------------|
|---|o-----------------------------------------------------------------o|
|---|-------------------------------------------------------------------|
|-7-|--8-------------8-9-------------9-8-------------8-7-------------7--|
|-5-|o-6-------------6-7-------------7-6-------------6-5-------------5-o|
|---|-------------------------------------------------------------------|


Verse 1 part 2:
   E    E   E   E    S S   S S E   S S   S S E    S S E   E   E
|-----|------------------------------------------------------------|
|-----|------------------------------------------------------------|
|-----|------------------------------------------------------------|
|-12/-|---------0--------------0-------------0--------1---3---4----|
|-12/-|-0---0---0----0-0---0-0-0---0-0---0-0-0----0-0-1---3---4----|
|-12/-|-0---0---0----0-0---0-0-0---0-0---0-0-0----0-0-1---3---4----|
PM      .   .        . .   . .     . .   . .      . .

  E   E   E    S S   S S E   S S   S S E    S S E   E   E
|------------------------------------------------------------|
|------------------------------------------------------------|
|------------------------------------------------------------|
|---------0--------------0-------------0--------4---3---1----|
|-0---0---0----0-0---0-0-0---0-0---0-0-0----0-0-4---3---1----|
|-0---0---0----0-0---0-0-0---0-0---0-0-0----0-0-4---3---1----|
PM.   .        . .   . .     . .   . .      . .

  E   E   E    S S S S E    S S S S E    S S E   E   E
|---------------------------------------------------------|
|---------------------------------------------------------|
|---------------------------------------------------------|
|---------0------------0------------0--------1---3---4----|
|-0---0---0----0-0-0-0-0----0-0-0-0-0----0-0-1---3---4----|
|-0---0---0----0-0-0-0-0----0-0-0-0-0----0-0-1---3---4----|
PM.   .        . . . .      . . . .      . . 

  S S S S E    S S S S E    S S S S E    S S S S S E   E   E
|---------------------------------------------------------------|
|---------------------------------------------------------------|
|---------------------------------------------------------------|
|---------0------------0------------0------------0-4---3---1----|
|-0-0-0-0-0----0-0-0-0-0----0-0-0-0-0----0-0-0-0-0-4---3---1----|
|-0-0-0-0-0----0-0-0-0-0----0-0-0-0-0----0-0-0-0-0-4---3---1----|
PM. . . .      . . . .      . . . .      . . . . 


Verse 2 part 1:
  E    E             E E             E E             E E             E
|---|-------------------------------------------------------------------|
|---|o-----------------------------------------------------------------o|
|---|-------------------------------------------------------------------|
|-7-|--8-------------8-9-------------9-8-------------8-7-------------7--|
|-5-|o-6-------------6-7-------------7-6-------------6-5-------------5-o|
|---|-------------------------------------------------------------------|


Verse 2 part 2:
   E    E   E   E    S S   S S E   S S   S S E    S S E   E   E
|-----|------------------------------------------------------------|
|-----|------------------------------------------------------------|
|-----|------------------------------------------------------------|
|-12/-|---------0--------------0-------------0--------1---3---4----|
|-12/-|-0---0---0----0-0---0-0-0---0-0---0-0-0----0-0-1---3---4----|
|-12/-|-0---0---0----0-0---0-0-0---0-0---0-0-0----0-0-1---3---4----|
PM      .   .        . .   . .     . .   . .      . .

  E   E   E    S S   S S E   S S   S S E    S S E   E   E
|------------------------------------------------------------|
|------------------------------------------------------------|
|------------------------------------------------------------|
|---------0--------------0-------------0--------4---3---1----|
|-0---0---0----0-0---0-0-0---0-0---0-0-0----0-0-4---3---1----|
|-0---0---0----0-0---0-0-0---0-0---0-0-0----0-0-4---3---1----|
PM.   .        . .   . .     . .   . .      . .

  E   E   E    S S S S E    S S S S E    S S E   E   E
|---------------------------------------------------------|
|---------------------------------------------------------|
|---------------------------------------------------------|
|---------0------------0------------0--------1---3---4----|
|-0---0---0----0-0-0-0-0----0-0-0-0-0----0-0-1---3---4----|
|-0---0---0----0-0-0-0-0----0-0-0-0-0----0-0-1---3---4----|
PM.   .        . . . .      . . . .      . . 

  S S S S E    S S S S E    S S S S E    S S S S S E   E   E
|---------------------------------------------------------------|
|---------------------------------------------------------------|
|---------------------------------------------------------------|
|---------0------------0------------0------------0-4---3---1----|
|-0-0-0-0-0----0-0-0-0-0----0-0-0-0-0----0-0-0-0-0-4---3---1----|
|-0-0-0-0-0----0-0-0-0-0----0-0-0-0-0----0-0-0-0-0-4---3---1----|
PM. . . .      . . . .      . . . .      . . . . 


Chorus 1:
  W               W                 W                 W
|----------------------------------------------------------------------|
|----------------------------------------------------------------------|
|----------------------------------------------------------------------|
|-0---------------4-----------------5-----------------7----------------|
|-0---------------4-----------------5-----------------7----------------|
|-0---------------4-----------------5-----------------7----------------|

  W               W                 W                 W
|----------------------------------------------------------------------|
|----------------------------------------------------------------------|
|----------------------------------------------------------------------|
|-8---------------10----------------12----------------8----------------|
|-8---------------10----------------12----------------8----------------|
|-8---------------10----------------12----------------8----------------|

  Q   E E E E E E Q   E E E E E E E Q   E E E E E E E Q   E E E E E E E 
|-----------------------------------------------------------------------|
|-----------------------------------------------------------------------|
|-----------------------------------------------------------------------|
|-0---------------4-----------------5-----------------7-----------------|
|-0---------------4-----------------5-----------------7-----------------|
|-0---0-0-0-0-0-0-4---4-4-4-4-4-4-4-5---5-5-5-5-5-5-5-7---7-7-7-7-7-7-7-|
PM    . . . . . .     . . . . . . .     . . . . . . .     . . . . . . . 

  Q   E E E E E E Q    E  E  E  E  E  E  Q    E  E  E  E  E  E  Q   E E E E E
|-----------------------------------------------------------------------------|
|-----------------------------------------------------------------------------|
|-----------------------------------------------------------------------------|
|-8---------------10---------------------12---------------------8-------------|
|-8---------------10---------------------12---------------------8-------------|
|-8---8-8-8-8-8-8-10---10-10-10-10-10-10-12---12-12-12-12-12-12-8---8-8-8-8-8-|
PM    . . . . . .      .  .  .  .  .  .       .  .  .  .  .  .      . . . . .


Verse 3 part 1
  E    E             E E             E E             E E             E
|---|-------------------------------------------------------------------|
|---|o-----------------------------------------------------------------o|
|---|-------------------------------------------------------------------|
|-7-|--8-------------8-9-------------9-8-------------8-7-------------7--|
|-5-|o-6-------------6-7-------------7-6-------------6-5-------------5-o|
|---|-------------------------------------------------------------------|


Verse 3 part 2:
   E    E   E   E    S S   S S E   S S   S S E    S S E   E   E
|-----|------------------------------------------------------------|
|-----|------------------------------------------------------------|
|-----|------------------------------------------------------------|
|-12/-|---------0--------------0-------------0--------1---3---4----|
|-12/-|-0---0---0----0-0---0-0-0---0-0---0-0-0----0-0-1---3---4----|
|-12/-|-0---0---0----0-0---0-0-0---0-0---0-0-0----0-0-1---3---4----|
PM      .   .        . .   . .     . .   . .      . .

  E   E   E    S S   S S E   S S   S S E    S S E   E   E
|------------------------------------------------------------|
|------------------------------------------------------------|
|------------------------------------------------------------|
|---------0--------------0-------------0--------4---3---1----|
|-0---0---0----0-0---0-0-0---0-0---0-0-0----0-0-4---3---1----|
|-0---0---0----0-0---0-0-0---0-0---0-0-0----0-0-4---3---1----|
PM.   .        . .   . .     . .   . .      . .

  E   E   E    S S S S E    S S S S E    S S E   E   E
|---------------------------------------------------------|
|---------------------------------------------------------|
|---------------------------------------------------------|
|---------0------------0------------0--------1---3---4----|
|-0---0---0----0-0-0-0-0----0-0-0-0-0----0-0-1---3---4----|
|-0---0---0----0-0-0-0-0----0-0-0-0-0----0-0-1---3---4----|
PM.   .        . . . .      . . . .      . . 

  S S S S E    S S S S E    S S S S E    S S S S S E   E   E
|---------------------------------------------------------------|
|---------------------------------------------------------------|
|---------------------------------------------------------------|
|---------0------------0------------0------------0-4---3---1----|
|-0-0-0-0-0----0-0-0-0-0----0-0-0-0-0----0-0-0-0-0-4---3---1----|
|-0-0-0-0-0----0-0-0-0-0----0-0-0-0-0----0-0-0-0-0-4---3---1----|
PM. . . .      . . . .      . . . .      . . . . 


Chorus 2:
  W               W                 W                 W
|----------------------------------------------------------------------|
|o---------------------------------------------------------------------|
|----------------------------------------------------------------------|
|-0---------------4-----------------5-----------------7----------------|
|o0---------------4-----------------5-----------------7----------------|
|-0---------------4-----------------5-----------------7----------------|

  W               W                 W                 W
|----------------------------------------------------------------------|
|---------------------------------------------------------------------o|
|----------------------------------------------------------------------|
|-8---------------10----------------12----------------8----------------|
|-8---------------10----------------12----------------8---------------o|
|-8---------------10----------------12----------------8----------------|

  Q   E E E E E E Q   E E E E E E E Q   E E E E E E E Q   E E E E E E E 
|-----------------------------------------------------------------------|
|-----------------------------------------------------------------------|
|-----------------------------------------------------------------------|
|-0---------------4-----------------5-----------------7-----------------|
|-0---------------4-----------------5-----------------7-----------------|
|-0---0-0-0-0-0-0-4---4-4-4-4-4-4-4-5---5-5-5-5-5-5-5-7---7-7-7-7-7-7-7-|
PM    . . . . . .     . . . . . . .     . . . . . . .     . . . . . . . 

  Q   E E E E E E Q    E  E  E  E  E  E  Q    E  E  E  E  E  E  Q E E E E E E
|-----------------------------------------------------------------------------|
|-----------------------------------------------------------------------------|
|-----------------------------------------------------------------------------|
|-8---------------10---------------------12---------------------8-------------|
|-8---------------10---------------------12---------------------8-------------|
|-8---8-8-8-8-8-8-10---10-10-10-10-10-10-12---12-12-12-12-12-12-8-8-8-8-8-8-8-|
PM    . . . . . .      .  .  .  .  .  .       .  .  .  .  .  .    . . . . . .

  W               W                 W                 W
|----------------------------------------------------------------------|
|----------------------------------------------------------------------|
|----------------------------------------------------------------------|
|-0---------------4-----------------5-----------------7----------------|
|-0---------------4-----------------5-----------------7----------------|
|-0---------------4-----------------5-----------------7----------------|

  W               W                 W                 W
|----------------------------------------------------------------------|
|----------------------------------------------------------------------|
|----------------------------------------------------------------------|
|-8---------------10----------------12----------------8----------------|
|-8---------------10----------------12----------------8----------------|
|-8---------------10----------------12----------------8----------------|

  W               W
|-----------------------------------|
|-----------------------------------|
|-----------------------------------|
|-10--------------7-----------------|
|-10--------------7-----------------|
|-10--------------7-----------------|


Outro:
   H   H   Q Q W       H   Q Q H   Q Q Q Q W       W       H   H
|------------------------------------------------------------------|
|------------------------------------------------------------------|
|----------------------------------------------------------7-------|
|------4---5-5h7-------8---7-5-8---7-5-4b5r4-------8-----------8---|
|------------------------------------------------------------------|
|--0---------------------------------------------------------------|

   H   H   Q Q W       H   Q Q H   Q Q Q Q W       W       H   H
|------------------------------------------------------------------|
|------------------------------------------------------------------|
|----------------------------------------------------------7-------|
|------4---5-5h7-------8---7-5-8---7-5-4b5r4-------8-----------8---|
|--5---------------------------------------------------------------|
|--0---------------------------------------------------------------|

  W
|-----------------|
|-----------------|
|-----------------|
|-----------------|
|-----------------|
|-0---------------|

END

            
            
Suggest correction
Creating personal tab
Creating personal tab
You can edit any tab online and save it as your Personal.

You can edit, replace or remove any tab part or add personal notes – all changes will be seen only by you.

Personal tabs can be accessed anytime from any device, even offline.
Learn more »
comments
print report bad tab
3 comments total.
0 reply
Masterbasser36 651 Feb 14, 2009 12:51 PM

this tab is much like version 3, both are perfect good job.

0 reply
jordosoad 10 Sep 11, 2009 12:09 PM

Great job bud

0 reply
ka.crum 10 Mar 10, 2016 10:43 AM

I am not criticizing i am merely suggesting that I find it a little easier if in the intro instead of 8 on the 2nd C# string and then 7 on the f# string then back to the 8 try 8 on the second C# then the 10th fret on the same string and back to the eight.

guest
You may want to rate the tab now too:
select rating
Wanna post a correction for this tab? Suggest correction