Oops, an error
Loading. Please wait.

Doves In The Wind chords

version 2
version 2

Whole song

  • Includes chords and keyboard line. Lead guitar part coming.
by SZA
1,426 views 24 this week
no commentswrite comment
1 2 3 4 5
2 more votes to show rating
add to favorites
×
Save as Personal and add changes to this tab that will be seen only by you. Learn more ›
×
You can save this tab as Personal to edit and correct it or add notes. All changes will be seen only by you. Learn more »
launch autoscroll
font size
0
reset
transpose
0
reset
simplify chords
display chords
guitar tuner
edit
Autoscroll
slow
fast
+/-
esc
set tempo
stop
About this tab version
Includes chords and keyboard line. Lead guitar part coming. Was this info helpful? Yes No
Strumming Is this strumming pattern correct? Yes No
Whole song 69 bpm
1
&
2
&
3
&
4
&
5
&
6
&
7
&
8
&
9
&
10
&
11
&
12
&
13
&
14
&
15
&
16
&
Listen
SZA
"Dove In The Wind (frat. Kendrick lamar)"


Standard tuning. Capo 6th fret. Chords and tabs relative to capo/

  Am9 A7sus4 G/B Bm7b5 Em   G
e|0---------------------------
B|0----0-----0----3----0----0
G|0----0-----0----2----0----0
D|2----0-----0----3----2----0
A|0----0-----2----2----2----2
E|---------------------0----3


[Intro]
  Am9          A7sus4 G/B          Bm7b5           Em  G6
e|--------------------------------|--------------------------------|
B|0/5-----------------------------|--------------------------------|
G|----------------2---4-----------|2/7-----------------4-----------|
D|--------------------------------|----------------5---------------|
A|--------------------------------|--------------------------------|
E|--------------------------------|--------------------------------|
 |
e|--------------------------------|----------------0---0-----------|
B|0---------------0---0-----------|3---------------0---0-----------|
G|0---------------0---0-----------|2---------------0---0-----------|
D|2---------------0---0-----------|3---------------2---0-----------|
A|0---------------0---2-----------|2---------------2---2-----------|
E|--------------------------------|----------------0---3-----------|

  Am9          A7sus4 G/B          Bm7b5             Em
e|--------------------------------|--------------------------------|
B|0/5-----------------------------|--------------------------------|
G|----------------2---4-----------|2/7-----------------------------|
D|--------------------------------|------------------5-------------|
A|--------------------------------|--------------------------------|
E|--------------------------------|--------------------------------|
 |
e|--------------------------------|------------------0-------------|
B|0---------------0---0-----------|3-----------------0-------------|
G|0---------------0---0-----------|2-----------------0-------------|
D|2---------------0---0-----------|3-----------------2-------------|
A|0---------------0---2-----------|2-----------------2-------------|
E|--------------------------------|------------------0-------------|

[Intro]
Am9         A7sus4 G/B
Bm7b5       Em     G6
Am9         A7sus4 G/B
Bm7b5

[Verse 1]
N.C.                 Am9         A7sus4 G/B
Real niggas do not deserve pussy
        Bm7b5                    Em      G6
Meaning it's more, you see right through walls
               Am9        A7sus4 G/B
Ain't talkin' about pussy
        Bm7b5                      Em
Meaning you deserve the whole box of chocolates
Am9        A7sus4 G/B
Come at me
        Bm7b5                 Em G6
Forrest Gump had a lot goin' for him
          Am9       A7sus4 G/B
Never without pussy
        Bm7b5                     Em
Y'know, Jenny almost gave it all up for him
 Am9                         A7sus4 G/B
Never even pushed for the pussy
Bm7b5                         Em     G6
Where's Forrest now when you need him?
Am9        A7sus4 G/B
Talk to me
        Bm7b5         Em
Talk to me, hey, hey, hey
Am9        A7sus4 G/B
Attention, all    you niggas
Bm7b5         Em   G6
      All you bitches


[Chorus]
Am9                     A7sus4 G/B
Sit back and relax your mind,   just ride
 Bm7b5                  Em
(ride, ride, ride, ride)
Am9                        A7sus4 G/B
Sit back and relax, you'll find   just why,
Bm7b5      Em   G6
(why, why)
Am9                   A7sus4 G/B             Bm7b5
Sit back, relax, just ease   your mind, just ride
                   Em
(Yeah, ride, ride)
Am9                  A7sus4 G/B
You are now watching MAD    TV

Bm7b5       Em     G6


[Verse 2]
N.C.                Am9                       A7sus4 N.C.
Niggas'll lose they mind for it, wine for it, dine   for it (pussy)
      Bm7b5                       Em   N.C.
Spend time for it, see no colored line for it (pussy)
Am9                         A7sus4 G/B
Double back handicap and go blind  for it (pussy)
Bm7b5                                Em
Pussy got endless prisoners, pussy always revengin' her
Am9                           A7sus4 G/B
Pussy is calculating and good pussy  is rather dangerous
N.C.
Pussy can be so facetious, the heavyweight champ
         Am9                  A7sus4 G/B
Pussy is so undefeated, let's a-     men to that
            Bm7b5                                      Em
I mean, the pump fakes on the Facebooks and the screw face when bae look
      Am9                           A7sus4 G/B
Won't get you no pussy, I mean, the fake   chains and the gold names
    Bm7b5                       N.C.
For insecure, gon' reassure you not to get pussy
        Am9                         A7sus4 G/B
You overcompensate too much for the pussy, you like to throw all kinda
Bm7b5                                        Em
Shade for the pussy, see, that's what pussy niggas do
           Am9                    A7sus4 G/B
I know the ways of a pussy, I see pussy  lookin' at you
         Bm7b5                   Em    G6
How many niggas get mistaken for clitoris in a day?
         Am9                        A7sus4  G/B
How many sentiments you make before runnin' pussy away?
         Bm7b5                                    Em
How many times she gotta tell you that dick is disposable?
           Am9                              A7sus4  G/B
But if she fuck a young nigga like me, it's over    for you
        Bm7b5                         N.C.
Solána, middle fingers up, speak your truth
                       Am9       A7sus4  G/B
You could never trivialize pussy
   N.C.                              Bm7b5                     Em
But a bum nigga like you would try it (pussy) I know what you really 'bout
            Am9                 A7sus4 G/B
I hear your dick is weak, buddy (pus-  sy)
                        Bm7b5                       Em     G6
It's only replaced by a rubber substitute, we ain't feelin' you


[Bridge]
Am9                          A7sus4 G/B
Think I caught a vibe, kinda feel a nigga
                    Bm7b5                                Em
You could touch the booty if you like, I ain't trippin' on ya
Am9                            A7sus4 G/B
   (Such a nice girl, SZA) I'm really tryna crack off
        Bm7b5                       Em      G6
Of that headboard and bust it wide open for the right one
                Am9   A7sus4 G/B
'Cause you that one
               Bm7b5         Em
Yeah, you that one
                  Am9   A7sus4 G/B
Like doves in the wind
      Bm7b5         Em
(Hey, hey) Pussy like doves in the
Am9   A7sus4 G/B
Wind

Bm7b5  Em G6

       Am9          A7sus4 G/B
I will make you beg for    it
  Bm7b5                  Em
I wanna see you call out


[Chorus]
Am9                     A7sus4 G/B
Sit back and relax your mind,  just ride
 Bm7b5                  Em G6
(ride, ride, ride, ride)
Am9                        A7sus4 G/B
Sit back and relax, you'll find   just why,
Bm7b5           Em
(why, why, why, why)
Am9                   A7sus4 G/B             Bm7b5
Sit back, relax, just ease   your mind, just ride
                   Em
(ride, ride, ride)
Am9                  N.C.
You are now watching MAD TV



***********************************

| /   Slide-up

***********************************

            
            
Suggest correction
Creating personal tab
Creating personal tab
You can edit any tab online and save it as your Personal.

You can edit, replace or remove any tab part or add personal notes – all changes will be seen only by you.

Personal tabs can be accessed anytime from any device, even offline.
Learn more »
Give kudos to tab author, rate the tab!
1 2 3 4 5
comments
print report bad tab
guest
You may want to rate the tab now too:
select rating
Wanna post a correction for this tab? Suggest correction