Oops, an error
Loading. Please wait.

New York City intro tab

version 1
version 1

Intro

Whole song

by T. Rex
1,397 views 1 this week
1 commentread comment
1 2 3 4 5
3 more votes to show rating
add to favorites
×
Save as Personal and add changes to this tab that will be seen only by you. Learn more ›
×
You can save this tab as Personal to edit and correct it or add notes. All changes will be seen only by you. Learn more »
launch autoscroll
font size
0
reset
how to read this tab
guitar tuner
edit
Autoscroll
slow
fast
+/-
esc
set tempo
stop
Author
this riff continues throughout:

e -----------------------------------------------------------------|
B -----------------------------------------------------------------|
G -----------------------------------------------------------------|
D -----------------------------------------------------------------|
A ---------5-7-5---------------------------------------------------|
E --3--7-----------------------------------------------------------|


and later on theres this little riff:

e -----------------------------------------------------------------|
B -----------------------------------------------------------------|
G -----------------------------------------------------------------|
D -----------------------------------------------------------------|
A -----------------------------------------------------------------|
E --3----5----8--7----3--5--3--5~----------------------------------| 


enjoy!

and please rate

thank you please

A. Taylor


            
            
Suggest correction
Creating personal tab
Creating personal tab
You can edit any tab online and save it as your Personal.

You can edit, replace or remove any tab part or add personal notes – all changes will be seen only by you.

Personal tabs can be accessed anytime from any device, even offline.
Learn more »
Give kudos to tab author, rate the tab!
1 2 3 4 5
comments
print report bad tab
1 comment total.
0 reply
joshads 41 Mar 24, 2008 04:06 AM

Hi, My name is Josh and im only fourteen but i have been listening to t-rex most of my life. I wanted to learn that riff so i came on here to lok but i think it may be wrong. I th ink the whole sequence thing is right but im pretty sure its in the key of G. So its pretty much the walking bass.


E---------------------
B---------------------
G---------------------
D-------------2-------
A-----2---5------5----
E--3------------------

And then the next bit, carrying on the in Gmaj. does the same sort of walking bass sequence but starts from fret 3 of the A string. Please email back if you think it is incorrect, it could well be but i thought I'd pu tmy idea forward.

Thanks,

Josh

guest
You may want to rate the tab now too:
select rating
Wanna post a correction for this tab? Suggest correction