Oops, an error
Loading. Please wait.

Puttin On The Ritz bass

by Taco
346 views 12 this week
no commentswrite comment
1 2 3 4 5
2 more votes to show rating
add to favorites
×
Save as Personal and add changes to this tab that will be seen only by you. Learn more ›
×
You can save this tab as Personal to edit and correct it or add notes. All changes will be seen only by you. Learn more »
launch autoscroll
font size
0
reset
guitar tuner
edit
Autoscroll
slow
fast
+/-
esc
set tempo
stop
About this tab version
This is a complete version of the bass line as I hear it. Was this info helpful? Yes No
[Intro]
G|----------------------------|--------------------------|
D|----------------3-3---------|----------------3-3-------|
A|-5--5--5----3h5-----5--3h5--|-5--5--5----3h5-----------|
E|----------------------------|--------------------5--5--|

[Verse 1]
If you're blue and you don't know where to go to/ Why don't you go where fashion sits?/ Puttin' on the Ritz
G|----------------------------|--------------------------|
D|----------------3-3---------|--------------------------|
A|-5--5--5----3h5-----5--3h5--|------------3h5-5-5-------|
E|----------------------------|-5--5--5------------6--5--|


Different types who wear a day, coat pants with stripes and cutaway/ Coat perfect fits/ Puttin' on the Ritz
G|----------------------------|--------------------------|
D|----------------3-3---------|--------------------------|
A|-5--5--5----3h5-----5--3h5--|------------3h5-5-5-------|
E|----------------------------|-5--5--5------------6--5--|

[Verse 2]
Dressed up like a million-dollar trooper
G|---------------------------3h5-|
D|------------3h5----------------|
A|----------------3--3--3--3-----|
E|-3--3--3--3--------------------|

Tryin' hard to look like Gary Cooper (Super duper)
G|-------------------------------|
D|-------------------------8---7-|
A|------0h1h3--3-----------------|
E|-1--1-----------1--1---6---5---|

[Verse 3]
Come let's mix where Rockefellers walk with sticks or umbrellas in their mitts/ Puttin' on the Ritz
G|----------------------------|---------------------------|
D|----------------3-3---------|---------------------------|
A|-5--5--5----3h5-----5-5-3h5-|------------3-5--------4h5-|
E|----------------------------|-5--5--5--5------6--5------|

[Bridge]
Have you seen the well-to-do up and down Park Avenue/ On that famous thoroughfare with their noses in the air
G|-----------------------------|-----------------------------------|
D|---------7---7---------7-----|----------10---10----------10---10-|
A|-5--7----------5--7----------|-8--10------------8--10------------|
E|-------5---5---------5---5-8-|--------8----8-----------8----8----|

High hats and arrow collars, white spats and lots of dollars
G|-----------------|-----------------|
D|---7---8---2---2-|---7---8---2---2-|
A|-----------------|-----------------|
E|-5---6---0---0---|-5---6---0---0---|

Spending every dime for a wonderful time
G|---------------------------|
D|---------------------------|
A|------2--2-----------------|
E|-2----------0----5-5-3-2-0-|

[Verse 1]
If you're blue and you don't know where to go to /Why don't you go where fashion sits?/ Puttin' on the Ritz
G|----------------------------|--------------------------|
D|----------------3-3---------|--------------------------|
A|-5--5--5----3h5-----5-5-3h5-|------------3h5-5-5-------|
E|----------------------------|-5--5--5--5---------6--5--|

Different types who wear a day, coat pants with stripes and cutaway/ Coat perfect fits/ Puttin' on the Ritz
G|----------------------------|--------------------------|
D|----------------3-3---------|--------------------------|
A|-5--5--5----3h5-----5-5-3h5-|------------5--5--------|
E|----------------------------|-5--5--5---------6--5--|

[Verse 2]
Dressed up like a million-dollar trooper
G|---------------------------3h5-|
D|------------3h5----------------|
A|----------------3--3--3--3-----|
E|-3--3--3--3--------------------|

Tryin' hard to look like Gary Cooper (Super duper)
G|-------------------------------|
D|-------------------------8---7-|
A|------0h1h3--3-----------------|
E|-1--1-----------1--1---6---5---|

Come let's mix where Rockefellers walk with sticks or umbrellas in their mitts/ Puttin' on the Ritz
G|----------------------------|-----------------------------------------|
D|----------------3-3---------|-----------------------------------------|
A|-5--5--5----3h5-----5-5-3h5-|--------------5--5--5--1------------2----|
E|----------------------------|-5--5--5--5-5-------------1--0--3-2------|

[Solo 1]
G|--------------------|--------------------|-------------------------|--------------------|
D|--------------------|--------------------|-------------------------|--------------------|
A|--------------------|--------------------|-------------------------|--------------------|
E|-0-0-----0-0----0-0-|-0-0-----0-0--------|-0-0-----0-0---0-0---0-0-|-0-0-----0-0--------|

G|--------------------|--------------------|--------------------|--------------------|
D|--------------------|--------------------|--------------------|--------------------|
A|--------------------|--------------------|--------------------|--------------------|
E|-0-0-------0-0------|-0-0-----0-0--------|-0-0-----0-0--------|-0-0-----0-0--------|

[Verse 4]
Dressed up like a million-dollar trooper
G|---------------------------5h7-|
D|------------5h7----------------|
A|----------------5--5--5--5-----|
E|-5--5--5--5--------------------|

Tryin' hard to look like Gary Cooper (Super duper)
G|--------------------------------|
D|-------------------------10---9-|
A|------2h3h5--5------------------|
E|-3--3-----------3--3---8---7----|

If you're blue and you don't know where to go to / Why don't you go where fashion sits? / Puttin' on the Ritz
G|----------------------------|-------------------------|
D|----------------5-5---------|-------------------10--9-|
A|-7--7--7--5h7-7-----7---5h7-|------------5h7-7--------|
E|----------------------------|-7--7--7--7-------8--7---|

Puttin' on the Ritz, puttin' on the Ritz, puttin' on the Ritz
G|------------|------------|
D|------10--9-|------10--9-|
A|-7-7--------|-7-7--------|
E|-----8--7---|-----8--7---|

[Solo 2]
G|--------------------------------|--------------------------------|
D|--------------------------------|--------------------------------|
A|--------------------------------|--------------------------------|
E|-0--0--0----0-0--0--3-3--5--3-5-|-0--0--0----0-0--0--3-3--5--3-5-|

Downtown, Uptown / Get your kicks at the Ritz / Dining one but not 'till nine
G|--------------------|--------------------|--------------------|--------------------|--------------------|
D|--------------------|--------------------|--------------------|--------------------|--------------------|
A|--------------------|--------------------|--------------------|--------------------|--------------------|
E|-0-0-------0-0------|-0-0-----0-0--------|-0-0-----0-0--------|-0-0-----0-0--------|-0-0-----0-0--------|

The time is right for us tonight / We can move, move to the rhythm, we can...
G|------------|------------|------------|------------|------------|
D|------------|------------|------------|------------|------------|
A|------------|------------|------------|------------|------------|
E|-0----------|-0----------|-0----------|-0----------|-0----------|

Move, dance to the rhythm, nice and easy
G|------------|------------|------------|------------|------------|
D|------------|------------|------------|------------|------------|
A|------------|------------|------------|------------|------------|
E|-0----------|-0----------|-0----------|-0----------|-0-----0--0-|

I want you to move
G|------------|------------|--------------------|
D|------------|---------------------------------|
A|------------|-8-----8-------------------------|
E|-0--0--0--0-|----8-----8--8-8--10-11-12-13----|

Puttin' it on, puttin' it on, puttin' it on, puttin' it on / R. I. T. Z. / How 'bout you and me says he
G|--------------------------------|--------------------------------|
D|--------------------------------|--------------------------------|
A|--------------------------------|--------------------------------|
E|-0--0--0----0-0--0--3-3--5--3-5-|-0--0--0----0-0--0--3-3--5--3-5-|

G|-----------------------------------------------|
D|-15-14-----------------------------------------|
A|-------15-17-15-12-15-12----12-15-15h17--------|
E|-------------------------13-------------13-----|

                                                          Gotta dance
G|------------|------------|------------|------------|------------|
D|------------|------------|------------|------------|------------|
A|------------|-7----------|------------|------------|------------|
E|-0----------|------------|-0----------|-0----------|-0----------|

                                                         Gotta dance
G|--------------|--------------|--------------|--------------|--------------|
D|--------------|--------------|--------------|--------------|--------------|
A|--------------|--------------|--------------|--------------|--------------|
E|-(0)----------|-(0)----------|-(0)----------|-(0)----------|-(0)----------|

G|--------------|--------------|--------------|--------------|
D|--------------|--------------|--------------|--------------|
A|--------------|--------------|--------------|--------------|
E|-(0)----------|-(0)----------|-(0)----------|-(0)----------|

If you're blue and you don't know where to go to
Why don't you go where fashion sits?
Puttin' on the Ritz, puttin' on the Ritz, puttin' on the Ritz, puttin' it on

***********************************
|  h   Hummer-on
| ( )  Palm
***********************************

            
            
Suggest correction
Creating personal tab
Creating personal tab
You can edit any tab online and save it as your Personal.

You can edit, replace or remove any tab part or add personal notes – all changes will be seen only by you.

Personal tabs can be accessed anytime from any device, even offline.
Learn more »
Give kudos to tab author, rate the tab!
1 2 3 4 5
comments
print report bad tab
guest
You may want to rate the tab now too:
select rating
Wanna post a correction for this tab? Suggest correction