Oops, an error
Loading. Please wait.

Crimson Wave chords

version 3
version 3

Whole song

by Tacocat
109 views 3 this week
no commentswrite comment
1 2 3 4 5
3 more votes to show rating
add to favorites
×
Save as Personal and add changes to this tab that will be seen only by you. Learn more ›
×
You can save this tab as Personal to edit and correct it or add notes. All changes will be seen only by you. Learn more »
launch autoscroll
font size
0
reset
transpose
0
reset
display chords
guitar tuner
edit
Autoscroll
slow
fast
+/-
esc
set tempo
stop
Strumming
There is no strumming pattern for this song yet. and get +5 IQ
-------------------------------------------------------------------------------
                             CRIMSON WAVE- TACOCAT
-------------------------------------------------------------------------------
Tabbed by: Jacob Roberts

Tuning: Standard with Capo on the 4th Fret

*The "-" in the middle of a word is used to highlight the chord change in the middle of the lyric*

Enjoy!

[Verse]
G
It's that time, that time of the month

Well I woke up early and I got a hunch
Em
Gonna head on down to the beach today. surf all my girl probs away
G
'Cause all I want to do is cry, ask mother nature why, why, why
Em
Listen to the Cramps on my stereo, turn it up as loud as it will go (uh-oh)

[Chorus]
Am       D
Surfin', surfin' the wave
Am                D
All the girls are surfin' the wave
Am          D              G
Surfin' the crimson wave to-day

[Verse]
G
Gonna call in sick to work, I don't care, my boss is a jerk
Em
Can't believe all the pain I'm in, give me white wine and Vicodin
G
Call my girls see if they wanna go, take their minds off dumb Aunt Flo
Em
Sew a scarlet letter on my bathing suit, 'cause I've got sharks in hot pursuit (oo-oot)

[Chorus]
Am       D
Surfin', surfin' the wave
Am                D
All the girls are surfin' the wave
Am          D              G
Surfin' the crimson wave to-day

[Solo] x2
e|-----------------------------------------------|
B|-----------------------------------------------|
G|-------------0-------------------------0-------|
D|----------0-1-1-0-------------------0-1-1-0----|
A|---------2-------2-----------------2-------2---|
E|-3---3-3-------------------3---3-3-------------|

e|----------------------------------------------------------|
B|----------------------------------------------------------|
G|----------------------------------------------------------|
D|----------------0-1-0--------------------------0-1-0------|
A|---------------1-----1------------------------1-----1-0---|
E|-0---0-0-h3-h5--------3---------0---0-0-h3-h5-------------|

[Chorus]
Am       D
Surfin', surfin' the wave
Am                D
All the girls are surfin' the wave
Am          D              G
Surfin' the crimson wave to-day

[Verse]
C         Em   D             G
There are commu-nists in the summer house
C         Em   D             G
There are commu-nists in the summer house
C     Em        D        G    C           Em         D               G
Offer them some primrose tea, if you need me, you'll know where I'll be (ee-e)

[Chorus]
Am       D
Surfin', surfin' the wave
Am                D
All the girls are surfin' the wave
Am          D              G
Surfin' the crimson wave to-day

************************************

| h  Hammer-on

************************************

            
            
Suggest correction
Creating personal tab
Creating personal tab
You can edit any tab online and save it as your Personal.

You can edit, replace or remove any tab part or add personal notes – all changes will be seen only by you.

Personal tabs can be accessed anytime from any device, even offline.
Learn more »
Give kudos to tab author, rate the tab!
1 2 3 4 5
comments
print report bad tab
guest
You may want to rate the tab now too:
select rating
Wanna post a correction for this tab? Suggest correction