Oops, an error
Loading. Please wait.

The Price Of Freedom tab

version 3
version 3

Whole song

Interactive

47,498 views 63 this week
4 commentsread comments
1 2 3 4 5
x 10
add to favorites
×
Save as Personal and add changes to this tab that will be seen only by you. Learn more ›
×
You can save this tab as Personal to edit and correct it or add notes. All changes will be seen only by you. Learn more »
launch autoscroll
font size
0
reset
how to read this tab
guitar tuner
edit
Autoscroll
slow
fast
+/-
esc
set tempo
stop
Author
Difficulty
intermediate
tab written by trajiti

To play this song acoustically you have to know the chords E, C, G,and D.

Guitar I 
(Throughout the whole song)

    Em         C                 G          D            D

e|--0---0-0-0--0---0-0---0-0-0-0-3---3-3-3--2--2-2---3-2-2-2--|
B|--0---0-0-0--1---1-1---1-1-1-1-0---0-0-0--3--3-3---3-3-3-3--|
G|--0---0-0-0--0---0-0---0-0-0-0-0---0-0-0--2--2-2---2-2-2-2--|
D|--2---2-2-2--2---2-2---2-2-2-2-0---0-0-0--0--0-0---0-0-0-0--|
A|--2---2-2-2--3---3-3---3-3-3-3-2---2-2-2--------------------|
E|--0---0-0-0--------------------3---3-3-3--------------------|

this repeats.

this next part can be played like this

Guitar III (Part 1) (Clean) 
(Verses after Violin, chorus [until Part 2])
    
e|--3-5--7-8-3---3-5--7-5/3-2------------------|
B|---------------------------------------------|
G|---------------------------------------------|  x4  (chorus: x2)
D|---------------------------------------------|
A|---------------------------------------------|
E|---------------------------------------------|

the violin in the beginning of the song, as well as the chorus is played like this on guitar

Guitar II (Violin) 
(First verse, chorus)
    
e|--17-19-20---15---17-15---19--17-15-14---12--|
B|---------------------------------------------| 
G|---------------------------------------------|  x2  
D|---------------------------------------------|
A|---------------------------------------------|
E|---------------------------------------------|

the chorus can be played many different ways but i found this easiest

Guitar III (Chorus) (Part 2) (Disortion) 
(Starts after Guitar IV played the verse 2 times)

e|---------------------------------------------------------------|
B|---------------------------------------------------------------|
G|--------------12-14--------------------------12-14---------12b-|
D|--------12-14-------14---12------------12-14-------14---14-----|
A|--12-14--------------------------12-14-------------------------|
E|---------------------------------------------------------------|

Guitar III (Bridge) (Disortion) 
(Let it ring out...)

e|------|
B|------|
G|------|  x1
D|--14--|
A|------|
E|------|

Guitar IV (Bridge) (Disortion) 
(Let it ring out...)

e|-----|
B|-----|
G|--9--|  x1
D|--9--|
A|--7--|
E|-----|

the ending solo is played like this

Guitar V (Solo) (Distortion) 
(Starts in the second chorus after Guitar III played the verse 2 times)

e|--10--10-10-10-10-10--7-8-7-----------------------------------------|
B|-----------------------------10--8--7---8-7-8/12--12--12--12-12-12--|
G|--------------------------------------------------------------------|
D|--------------------------------------------------------------------|
A|--------------------------------------------------------------------|
E|--------------------------------------------------------------------|

e|--10--10-10-10-10-10--8--7--7-8-7--------------------------------10~-|
B|-----------------------------------10--10-10-10-10-8---7-8--8--------|
G|---------------------------------------------------------------------|
D|---------------------------------------------------------------------|
A|---------------------------------------------------------------------|
E|---------------------------------------------------------------------|

Outro: Only Guitar I, play it 2 times and let the 
last chord ring out...

and there it is.  this song is amazing and worth learning.



************************************

| b  Bend
| /  Slide up
| ~  Vibrato

************************************

            
            
Suggest correction
Creating personal tab
Creating personal tab
You can edit any tab online and save it as your Personal.

You can edit, replace or remove any tab part or add personal notes – all changes will be seen only by you.

Personal tabs can be accessed anytime from any device, even offline.
Learn more »
comments
print report bad tab
4 comments total. Showing first comments.
+1 reply
VirtualFire 10 Aug 12, 2009 05:16 AM

hello, not bad at all but i think the c is like this:
--0--0-0--0-0-0-0
--1--1-1--3-1-1-1
--0--0-0--0-0-0-0
--2--2-2--2-2-2-2
--3--3-3--3-3-3-3
-----------------
4 stars

+1 reply
shyboyswin 10 Aug 17, 2009 12:46 PM

He did put it that way VirtualFire
xD
But very good tab Chris. Keep it up.

0 reply
trajiti 63 Aug 17, 2009 12:54 PM

thanks for the comments, i've just uploaded another tab, fort minor where'd you go, it should be up in a couple of days

guest
You may want to rate the tab now too:
select rating
Wanna post a correction for this tab? Suggest correction