Oops, an error
Loading. Please wait.

Cute Without The E Cut From The Team tab

version 1
28,921 views 15 this week
7 commentsread comments
1 2 3 4 5
x 14
add to favorites
×
Save as Personal and add changes to this tab that will be seen only by you. Learn more ›
×
You can save this tab as Personal to edit and correct it or add notes. All changes will be seen only by you. Learn more »
launch autoscroll
font size
0
reset
how to read this tab
guitar tuner
edit
Autoscroll
slow
fast
+/-
esc
set tempo
stop
        Taking back sunday - Cute without the e  (cut from the team)

this is a good song that i hadn't been able to find tabs for. so here is a start;
its probably not perfect but i know its close and most people wont laugh at you for
playing it this way.  probably.

INTRO

e--------------
B-0---0---0---0
G-4---4---4---4
D-2---2---2---1
A-4---0---2---2
E--------------

VERSE

guitar 1

e------------------------------------------
B------------------------------------------
G-66666666----------444444444-------------- (Palm-muted)  
D-66666666-77777777-444444444---1---2-1---1
A-44444444-77777777-222222222-2---2-----2--
E----------55555555------------------------

guitar 2

e--------------------------------
B--------------------------------
G--------------------------------
D-----9-9-9----9-9-9-----9-9-9---
A--------------------------------
E--------------------------------

CHORUS

e--------------------------------
B--------------------------------
G-6-6-6-6-8-8-8-8-9-9-9-9--------   
D-6-6-6-6-8-8-8-8-9-9-9-9-7-7-7-7
A-4-4-4-4-6-6-6-6-7-7-7-7-7-7-7-7
E-------------------------5-5-5-5

BRIDGE 1   (2:01)

e---------------------------------
B-------9--------------9-10-9h10p9
G----9--------------9-------------   
D-9--------------9----------------
A---------------------------------
E---------------------------------

BRIDGE 2  (2:41)
e---------------------
B---------------------
G-6--2--4-------------   
D-6--2--4--2-1---2-1--
A-4--0--2------2-----2
E---------------------

OUTRO  (2:53)

e----------
B----------
G-6---2---4
D-6---2---4     
A-4---0---2
E----------

it sounds like there is something else guitar-related going on during this
part but im not sure what it is


INTRO    X2
VERSE    X6
CHORUS   X4
VERSE    X6
CHORUS   X4
BRIDGE 1 X2
BRIDGE 2 X4
OUTRO    X6 then once twice as fast


tabbed by sean connolly   veanconno@hotmail.com

            
            
Suggest correction
Creating personal tab
Creating personal tab
You can edit any tab online and save it as your Personal.

You can edit, replace or remove any tab part or add personal notes – all changes will be seen only by you.

Personal tabs can be accessed anytime from any device, even offline.
Learn more »
comments
print report bad tab
7 comments total. Showing first comments.
0 reply
SolidbodyRiffer 0 Nov 10, 2002 07:00 PM

in the chorus it is actually:

e--------------------------------
B--------------------------------
G-6-6-6-6-4-4-4-4-9-9-9-9--------
D-6-6-6-6-4-4-4-4-9-9-9-9-7-7-7-7
A-4-4-4-4-2-2-2-2-7-7-7-7-7-7-7-7
E-------------------------5-5-5-5

carbs himself <ermine_coat@hotmail.com>

0 reply
Smokin Fish 0 Feb 10, 2003 07:00 PM

i have to agree with solidbodyriffer on that one but you done a good job on the rest of it

0 reply
Blankapeeto 65 Mar 06, 2004 07:00 PM

Solidbody is right. Everything else is perfect. Great job.

guest
Wanna post a correction for this tab? Suggest correction