Oops, an error
Loading. Please wait.

Ill Let You Live tab

version 2
version 2

Whole song

Interactive

4,087 views 3 this week
2 commentsread comments
1 2 3 4 5
x 3
add to favorites
×
Save as Personal and add changes to this tab that will be seen only by you. Learn more ›
×
You can save this tab as Personal to edit and correct it or add notes. All changes will be seen only by you. Learn more »
launch autoscroll
font size
0
reset
how to read this tab
guitar tuner
edit
Autoscroll
slow
fast
+/-
esc
set tempo
stop
Author
Difficulty
SOng: I'll let you live
Band: Taking Back SUnday
Album: Louder Now
Track: 11
Tabbed By: Blinkman5


Tuning: Half-step down ( Eb Ab Db Gb Bb eb )


Key:
* - Palm Mute
~ - Let Ring
p - Pull Off
h - Hammer On
/ - Lide Up
\ - Slide DOwn

Intro:

e|-------|
B|-------|
G|-------|
D|-2/44--| 19x
A|-0-22--|
E|-------|

Verse:

e|-7~----7-5~-----9-5~-----12-10-9--|
B|----------------------------------|
G|----------------------------------|
D|----------------------------------| 2x Play Softly and Slowly
A|----------------------------------|
E|----------------------------------|

Pre-Chorus:

e|---------------------------------------------------------------|
B|---------------------------------------------------------------|
G|---------------------------------------------------------------|
D|-555~---------555~-----222~-4~-555~----555~----222222222~------|
A|-555~---------555~-----222~-4~-555~----555~----222222222~------|
E|-333~---------333~-----000~-2~-333~----333~----000000000~------|
                                                 *********

Played Over Pre-Chorus:
( I'm not sure if it's played on bass or guitar, but if it's on guitar, thisis how it's 
):

e|--------------------------------------------------|
B|--------------------------------------------------|
G|--------------------------------------------------|
D|--------------------------------------------------| 2x Play Softly and Slowly
A|--------------------------------------------------|
E|-5h4h0~--5~---12~--12/9~-12p10p9~-5~---10h9--7\5--|

Verse:

e|-7~----7-5~-----9-5~-----12-10-9--|
B|----------------------------------|
G|----------------------------------|
D|----------------------------------| 2x Play Softly and Slowly
A|----------------------------------|
E|----------------------------------|

Pre-Chorus:

e|---------------------------------------------------------------|
B|---------------------------------------------------------------|
G|---------------------------------------------------------------|
D|-555~---------555~-----222~-4~-555~----555~----222222222~------|
A|-555~---------555~-----222~-4~-555~----555~----222222222~------|
E|-333~---------333~-----000~-2~-333~----333~----000000000~------|
                                                 *********

Played Over Pre-Chorus:
( I'm not sure if it's played on bass or guitar, but if it's on guitar, thisis how it's 
):

e|--------------------------------------------------|
B|--------------------------------------------------|
G|--------------------------------------------------|
D|--------------------------------------------------| 2x Play Softly and Slowly
A|-5h4h0~--5~---12~--12/9~-12p10p9~-5~---10h9--7\5--|
E|--------------------------------------------------|

Chorus:

e|------------------------------------|
B|------------------------------------|
G|-----------------777~---------------|
D|-999~----777~----777~----555~-------|
A|-999~----777~----555~----555~-------|
E|-777~----555~------------333~-------|

e|-------------------------------------|
B|-------------------------------------|
G|---------777-------------------------|
D|-999-777-777-444~---555~---55554444--|
A|-999-777-555-444~---555~---55554444--|
E|-777-555-----222~---333~---33332222--|

Solo:

e|----------------------------------------------|
B|-7--7-77-10--10-10\7-77\5-55\3-33-3/4-66\4\3--|
G|----------------------------------------------|
D|----------------------------------------------| Played Slowly
A|----------------------------------------------|
E|----------------------------------------------|

Verse:

e|-7~----7-5~-----9-5~-----12-10-9--|
B|----------------------------------|
G|----------------------------------|
D|----------------------------------| 2x Play Softly and Slowly
A|----------------------------------|
E|----------------------------------|

Played At The End Of the Verse:

e|--------------|
B|--------------|
G|--------------|
D|--------------|
A|-99-77-55-55--|
E|-77-55-33-44--|


Pre-Chorus:

e|---------------------------------------------------------------|
B|---------------------------------------------------------------|
G|---------------------------------------------------------------|
D|-555~---------555~-----222~-4~-555~----555~----222222222~------|
A|-555~---------555~-----222~-4~-555~----555~----222222222~------|
E|-333~---------333~-----000~-2~-333~----333~----000000000~------|
                                                 *********

Played Over Pre-Chorus:
( I'm not sure if it's played on bass or guitar, but if it's on guitar, thisis how it's 
):

e|--------------------------------------------------|
B|--------------------------------------------------|
G|--------------------------------------------------|
D|--------------------------------------------------| 2x Play Softly and Slowly
A|-5h4h0~--5~---12~--12/9~-12p10p9~-5~---10h9--7\5--|
E|--------------------------------------------------|

Chorus:

e|------------------------------------|
B|------------------------------------|
G|-----------------777~---------------|
D|-999~----777~----777~----555~-------|
A|-999~----777~----555~----555~-------|
E|-777~----555~------------333~-------|


e|-------------------------------------|
B|-------------------------------------|
G|---------777-------------------------|
D|-999-777-777-444~---555~---55554444--|
A|-999-777-555-444~---555~---55554444--|
E|-777-555-----222~---333~---33332222--|

e|------------------------------------|
B|------------------------------------|
G|-----------------777~---------------|
D|-999~----777~----777~----555~-------|
A|-999~----777~----555~----555~-------|
E|-777~----555~------------333~-------|

e|-------------------------------------|
B|-------------------------------------|
G|---------777-------------------------|
D|-999-777-777-444~---555~---55554444--|
A|-999-777-555-444~---555~---55554444--|
E|-777-555-----222~---333~---33332222--|

Bridge:

e|-------|
B|-------|
G|-------|
D|-2/44--| 8x
A|-0-22--|
E|-------|

Continued:

e|-------|
B|-------|
G|-------|
D|-------| 32x
A|-2-55--|
E|-0-33--|
   * **

Played Over COntinued Bridge:

e|------------------------|
B|------------------------|
G|------------------------|
D|-9~---12~-7~--5-4--12~--|
A|------------------------|
E|------------------------|

e|------------------------|
B|------------------------|
G|------------------------|
D|-9~---12~-7~--5-45-12~--|
A|------------------------|
E|------------------------|

Play 4x

Chorus:

e|------------------------------------|
B|------------------------------------|
G|-----------------777~---------------|
D|-999~----777~----777~----555~-------| 3x
A|-999~----777~----555~----555~-------|
E|-777~----555~------------333~-------|

e|-------------------------------------|
B|-------------------------------------|
G|---------777-------------------------|
D|-999-777-777-444~---555~---55554444--|
A|-999-777-555-444~---555~---55554444--|
E|-777-555-----222~---333~---33332222--|

e|-----|
D|-----|
B|-----|
G|-----|
D|-5~--|
A|-5~--|
E|-3~--|

Should Be Around 100%

Taking Back Sunday I'll Let You Live Lyrics
___________________________________________


The first degree was a riot
We're making sure
Our lesson's learned
I'm not ashamed, but im trying
I've come to expect
The standards you have set

Tell me just how dangerous is second best
You've settle for less
And I'm sure you'll settle again

There's no stopping me
I'm gutting you out
(Does this make you feel safe?)
There's no stopping this
I'm gutting you out
(Does this make you feel safe?)

The closer that I look is just
The further that you get already
Stubborn skin thickens in attempt to understand
(Understand)

There's no stopping me
I'm gutting you out
(Does this make you feel safe?)
There's no stopping this
I'm gutting you out
(Does this make you feel safe?)

We got tired of waiting
[ Lyrics found on http://www.metrolyrics.com ]

(of waiting)
The guilt subsides when the night begins
And I know it's not what you deserve

Came as a gift from a good friend (a good friend)
That disapproves (but understands)
That you represent and actively encouraged
Of all of my worst habits they all are
Proof that we are both capable of the most terrible things
"Don't test me"

There's no stopping me
I'm gutting you out
(Does this make you feel safe?)
There's no stopping this
I'm gutting you out
(Does this make you feel safe?)

We got tired of waiting(of waiting)
The guilt subsides when the night begins (of waiting)
And I know it's not what you deserve


(Silent... for good)
(You're silent... for good)

And I know it's not what you deserve
(It's not what you deserve)
I know it's not what you deserve
(I know it's not what you deserve)

            
            
Suggest correction
Creating personal tab
Creating personal tab
You can edit any tab online and save it as your Personal.

You can edit, replace or remove any tab part or add personal notes – all changes will be seen only by you.

Personal tabs can be accessed anytime from any device, even offline.
Learn more »
Give kudos to tab author, rate the tab!
1 2 3 4 5
comments
print report bad tab
2 comments total.
+1 reply
Fullmetalzawa 10 Feb 21, 2011 09:55 AM

The tab is mostly perfect, except for the intro. It should go:

e|-------|
B|-------|
G|-------|
D|-0/44--|
A|-0-22--|
E|-------|

instead of:
e|-------|
B|-------|
G|-------|
D|-2/44--|
A|-0-22--|
E|-------|


If you listen closely to the song, you can really hear the open d stand out, as opposed to it blending in if it were on the second fret.

0 reply
Fullmetalzawa 10 Feb 21, 2011 09:56 AM

I rated you 5 stars, though. Excellent tab.

guest
You may want to rate the tab now too:
select rating
Wanna post a correction for this tab? Suggest correction