Oops, an error
Loading. Please wait.

Killed The Cat bass

144 views 3 this week
1 commentread comment
1 2 3 4 5
3 more votes to show rating
add to favorites
×
Save as Personal and add changes to this tab that will be seen only by you. Learn more ›
×
You can save this tab as Personal to edit and correct it or add notes. All changes will be seen only by you. Learn more »
launch autoscroll
font size
0
reset
guitar tuner
edit
Autoscroll
slow
fast
+/-
esc
set tempo
stop
intro/verse 4x
---------------------------------------------------------------|
---------------------------------------------------------------|
-5(14x)------------------------------------------ intro/verse--| 4x
--------7(1x)--8(16x)---3(14x)--5(1x)--7(16x)------------------|

course
----------------------------------------|
----------------------------------------|
-------------------5(3x)--3(3x)--1(3x)--| 2x
-36x)---5(1x)-2(8x)---------------------|

intro/verse 4x
---------------------------------------------------------------|
---------------------------------------------------------------|
-5(14x)------------------------------------------ intro/verse--| 4x
--------7(1x)--8(16x)---3(14x)--5(1x)--7(16x)------------------|


course
----------------------------------------|
----------------------------------------|
-------------------5(3x)--3(3x)--1(3x)--| 2x
-36x)---5(1x)-2(8x)---------------------|

breakdown
-----------------------------------|
-----------------------------------|
-5(16x)--8(16x)--------------------|
---------------8(16x)--10(16x)-----|

guitars play the course once without bass and then you comein


course
----------------------------------------|
----------------------------------------|
-------------------5(3x)--3(3x)--1(3x)--| 1x
-36x)---5(1x)-2(8x)---------------------|

            
            
Suggest correction
Creating personal tab
Creating personal tab
You can edit any tab online and save it as your Personal.

You can edit, replace or remove any tab part or add personal notes – all changes will be seen only by you.

Personal tabs can be accessed anytime from any device, even offline.
Learn more »
Give kudos to tab author, rate the tab!
1 2 3 4 5
comments
print report bad tab
1 comment total.
0 reply
Boss61607 195 Nov 27, 2007 11:54 AM

I've never heard of this song?
what album is it from?

guest
Wanna post a correction for this tab? Suggest correction