Oops, an error
Loading. Please wait.

Liar It Takes One To Know One tab

version 3
version 3

Whole song

Interactive

1,662 views 3 this week
1 commentread comment
1 2 3 4 5
x 3
add to favorites
×
Save as Personal and add changes to this tab that will be seen only by you. Learn more ›
×
You can save this tab as Personal to edit and correct it or add notes. All changes will be seen only by you. Learn more »
launch autoscroll
font size
0
reset
how to read this tab
guitar tuner
edit
Autoscroll
slow
fast
+/-
esc
set tempo
stop
------------------------------------------------------------------------------------|    
  Liar (It Takes One To Know One) - Taking Back Sunday
------------------------------------------------------------------------------------|
Tabbed by: gloria Transit
Email:thewayout_pa@yahoo.com

This is my first tab, so go easy on me.

TBS kicks.

Tuning: Standard Tuning

Intro/Verse

Guitar One: Intro/Verse
e|-------------------------------------------------------------|
B|-------------------------------------------------------------|
G|--4-(8x)-6-(4x)-8-(12x)-6-(4x)-4-(8x)-3-(8x)-4-(8x)-3-(4x)---|
D|--x------x------x-------x------x------x------x------x--------|
A|--2------4------6-------4------2------1------2------1--------|
E|-------------------------------------------------------------|

Guitar Two: Verse
e|--x-x-x-x--4--4--4--4--4--4--4--4------------------|
B|--x-x-x-x--4--4--4--4--4--4--4--4--(Repeat)--------|
G|--x-x-x-x--4--4--4--4--4--4--4--4------------------|
D|--x-x-x-x--6--6--6--6--4--4--4--4------------------|
A|--x-x-x-x------------------------------------------|
E|--x-x-x-x------------------------------------------|


Guitar One: Pre-Chorus (Guitar Two plays intro/verse)
e|--------------------------------------------------|
B|--------------------------------------------------|
G|--------------------------------------------------|
D|-3(16x)-4(16x)-3(16x)-2(16x)----------------------|
A|-3------4------3------2---------------------------|
E|-1------2------1------0--------Pick Slide (2x)----|


Guitar One: Chorus (Guitar Two plays intro/verse)
e|----------------------------------------------|
B|----------------------------------------------|
G|-4(16x)---8(16x)------------------------------|
D|-4--------8-------8(8x)---6(8x)---3(8x)-------|
A|-2--------6-------8-------6-------3-----------|
E|------------------6-------4-------1-----------|


Verse
Chorus

Guitar One: Bridge (Guitar Two plays intro/verse)

e|----------------------------------------------|
B|----------------------------------------------|
G|----------------------------------------------|
D|--5~---8~---3~--(Play Chorus)-----------------|
A|--5~---8~---3~--------------------------------|
E|--3~---6~---1~--------------------------------|

Chorus

Both Guitars: Outro
e|-------------------------------------------------|
B|-------------------------------------------------|
G|--6-/-8---6-x-x-x6-x-x-x6-x-x-x6-x-x-x6~---------|
D|--6-/-8---6-x-x-x6-x-x-x6-x-x-x6-x-x-x6~---------|
A|--4-/-6---4-x-x-x4-x-x-x4-x-x-x4-x-x-x4~---------|
E|-------------------------------------------------|

            
            
Suggest correction
Creating personal tab
Creating personal tab
You can edit any tab online and save it as your Personal.

You can edit, replace or remove any tab part or add personal notes – all changes will be seen only by you.

Personal tabs can be accessed anytime from any device, even offline.
Learn more »
Give kudos to tab author, rate the tab!
1 2 3 4 5
comments
print report bad tab
1 comment total.
0 reply
z3r0element07 602 Jun 21, 2006 06:47 AM

I usually try to find something good out of a tab but this is all wrong. First of all it's in half-step tuning and there are way more parts then you have here.

guest
You may want to rate the tab now too:
select rating
Wanna post a correction for this tab? Suggest correction