Oops, an error
Loading. Please wait.

New Again bass

7,101 views 6 this week
no commentswrite comment
1 2 3 4 5
x 6
add to favorites
×
Save as Personal and add changes to this tab that will be seen only by you. Learn more ›
×
You can save this tab as Personal to edit and correct it or add notes. All changes will be seen only by you. Learn more »
launch autoscroll
font size
0
reset
guitar tuner
edit
Autoscroll
slow
fast
+/-
esc
set tempo
stop
Author
----------------------------------------------------------------------------
			     NEW AGAIN - Taking Back Sunday
----------------------------------------------------------------------------
This song has not been released yet but if you go to www.takingbacksunday.com and if you 
their online community you can download the song for free.

*EDIT* I just saw a video of this song live and have corrected some of fretting and fills.

Tabbed By : Tim Kealey
e-mail: tim_-k@hotmail.com

Tuning: Eb,Ab,Db,Gb

Intro
G|--------------------------------------------------------------------------|
D|--------------------------------------------------------------------------|
A|-2--2--2-5-2---------------7--7--7--7--5--5--4--4-------------------------|
E|-------------5-2--2--2--2-------------------------------------------------|

Verse (My dear, what long arms you have...)
G|--------------------------------------------------------------------------|
D|--------------------------------------------------------------------------|
A|-2--2--2-5-2---------------7--7--7--7--5--5--4--4-------------------------|
E|-------------5-2--2--2--2-------------------------------------------------|

G|--------------------------------------------------------------------------|
D|--------------------------------------------------------------------------|
A|-2--2--2-5-2---------------7--7--7--7~--7--7--7--77-----------------------|
E|-------------5-2--2--2--2-------------------------------------------------|

Pre-Chorus (What are we...)
G|--------------------------------------------------------------------------|
D|--------------------------------------------------------------------------|
A|-2--2--2--2--------------------------5--5--4--4---------------------------|
E|-------------2--2--2--2--0--0--0--0---------------------------------------|

G|--------------------------------------------------------------------------|
D|--------------------------------------------------------------------------|
A|-2--2--2--2--------------------------55555--------------------------------|
E|-------------2--2--2--2--0--0--0--0--------55x----------------------------|


Chorus (I Am...)
G|--------------------------------------------------------------------------|
D|--------------------------------------------------------------------------|
A|--------------------------444555--------------------7777777779997755------|
E|-0000000000000000-77777777------77-5555555555555555-----------------------|

G|--------------------------------------------------------------------------|
D|--------------------------------------------------------------------------|
A|------------------5555555555555555------------------777777777--------99---|
E|-0000000000000000------------------5555555555555555-----------7-10-7------|

Pre-Verse
G|--------------------------------------------------------------------------|
D|--------------------------------------------------------------------------|
A|-2222252---------7777777755554444-----------------------------------------|
E|--------522222222---------------------------------------------------------|

Verse (My dear, what deep roots you have...)
G|--------------------------------------------------------------------------|
D|--------------------------------------------------------------------------|
A|-22222222------------------55----4--22222222-------------------555-444----|
E|----------22222222-00000005--0350-5----------22222222-00000000----5---5---|

G|--------------------------------------------------------------------------|
D|--------------------------------------------------------------------------|
A|-2222252---------7777777755554444-22222222-------------------55554444-----|
E|--------522222222--------------------------22222222-00000000--------------|


Chorus (I Am...)
G|---------------------------------------------------------------11---------|
D|---------------------------------------------------------1412----1412--12-|
A|------------------------444555------------------777777777----14------14---|
E|000000000000000077777777------775555555555555555--------------------------|

G|-------------------------------------------------------------|------------|
D|-------------------------------------------------------------|------------|
A|------------------5555555555555555------------------777777777|--------99--|
E|-0000000000000000------------------5555555555555555----------|-7-10-7-----|
                                                             (play this 3x)^
Bridge 1
G|-------------------------|--------------------|---------------------------|
D|-------------------------|--------------------|----------------14---------|
A|-2--2--2--2--2--2--252---|--------------------|------12--12-14------------|
E|----------------------5--|-2~----7~----10~----|-10/12--12-----------------|
                          (play this 2 times)^^

G|---------------------------------------------------------------------------|
D|---------------------------------------------------------------------------|
A|---------------------------------------------------------------------------|
E|-1414141414141414-77777777-10101010101010101010101010101010----------------|

G|---------------------------------------------------------------------------|
D|--------------------12p11--------------------------------------------------|
A|-141414141414141414------12-99x--------------------------------------------|
E|---------------------------------------------------------------------------|

Chorus (I am...)
G|---------------------------------------------------------------------------|
D|----------------------------------------------------------------------1214-|
A|------------------------444555------------------7779991010101212121414-----|
E|000000000000000077777777------775555555555555555---------------------------|

G|--------------------------------------------------------------------------|
D|--------------------------------------------------------------------------|
A|------------------5555555555555555------------------77777777777777777-----|
E|-0000000000000000------------------5555555555555555-----------------------|

Bridge 2 (You don't know where I've been...)
G|---------------------------------14\12/14\12(x4)--------------------------|
D|-14\12/14\12(x4)---------------------------------14\12/14\12(x4)----------|
A|-----------------14\12/14\12(x4)------------------------------------------|
E|--------------------------------------------------------------------------|

G|--------------------------------------------------------------------------|
D|--------------------------------------------------------------12/14141414-|
A|------------------------444555------------------77777777------------------|
E|000000002203305077777777------775555555555555555--------101210------------|

G|--------------------------------------------------------------------------|
D|--------------------------------------------------------------------------|
A|------------------5555555555555555------------------777777777-------------|
E|-0000000000000000------------------5555555555555555-----------------------|

Outro
G|--------------------------------------------------------------------------|
D|--------------------------------------------------------------------------|
A|--------9-9---------9-9---------9-9---------------------------------------|
E|-7-10-7------7-10-7------7-10-7-------------------------------------------|

| /  slide up
| \  slide down
| h  hammer-on
| p  pull-off
| ~  vibrato
| +  harmonic
| x  Mute note
============================================================================

            
            
Suggest correction
Creating personal tab
Creating personal tab
You can edit any tab online and save it as your Personal.

You can edit, replace or remove any tab part or add personal notes – all changes will be seen only by you.

Personal tabs can be accessed anytime from any device, even offline.
Learn more »
comments
print report bad tab
guest
You may want to rate the tab now too:
select rating
Wanna post a correction for this tab? Suggest correction