Oops, an error
Loading. Please wait.

Set Phasers To Stun tab

version 1
version 1

Whole song

Interactive

20,640 views 18 this week
2 commentsread comments
1 2 3 4 5
x 15
add to favorites
×
Save as Personal and add changes to this tab that will be seen only by you. Learn more ›
×
You can save this tab as Personal to edit and correct it or add notes. All changes will be seen only by you. Learn more »
launch autoscroll
font size
0
reset
how to read this tab
guitar tuner
edit
Autoscroll
slow
fast
+/-
esc
set tempo
stop
Song: Set Phasers to Stun
Band: Taking Back Sunday
Album: Where you Want to Be
Tabber: Brian Bray - MoshiMoshi2Seksee@Gmail.com

Guitar 1: Rhythm Guitar
Guitar 2: Lead Guitar

Legend:
^ = Half Step Bend
h = Hammer-On
p = Pull-Off

E-Mail me any questions, comments, etc.

//Intro Part 1:
Guitar 1
E|-0-0-0-0-0-0-0-0-----------------0-0-0-0-0-0-0-0-----------------|
B|-0-0-0-0-0-0-0-0-4-4-4-4-4-4-4-4-0-0-0-0-0-0-0-0-4-4-4-4-4-4-4-4-|
G|-----------------4-4-4-4-4-4-4-4-----------------4-4-4-4-4-4-4-4-|
D|-----------------------------------------------------------------|
A|-----------------------------------------------------------------|
e|-----------------------------------------------------------------|

//Intro Part 2:
Guitar 1
E|-0-0-0-0-0-0-0-0-----------------0-0-0-0-0-0-0-0-----------------|
B|-0-0-0-0-0-0-0-0-4-4-4-4-4-4-4-4-0-0-0-0-0-0-0-0-4-4-4-4-4-4-4-4-|
G|-----------------4-4-4-4-4-4-4-4-----------------4-4-4-4-4-4-4-4-|
D|-----------------------------------------------------------------|
A|-----------------------------------------------------------------|
e|-----------------------------------------------------------------|

Guitar 2
E|----------------------------------------------------------------|
B|-----5---5^-----------5-5^-----------5---5^------------5-5^-----|
G|-------4-4^---------4---4^-------------4-4^----------4---4^-----|
D|-2-2------------2-2--------------2-2-------------2-2------------|
A|----------------------------------------------------------------|
e|----------------------------------------------------------------|

//Verse:
Guitar 1
E|-0-0-0-0-0-0-0-0-----------------0-0-0-0-0-0-0-0------------------|
B|-0-0-0-0-0-0-0-0-4-4-4-4-4-4-4-4-0-0-0-0-0-0-0-0-4-4-4-4-4-4-4-4--|
G|-----------------4-4-4-4-4-4-4-4-----------------4-4-4-4-4-4-4-4--| X2
D|------------------------------------------------------------------|
A|------------------------------------------------------------------|
e|------------------------------------------------------------------|

Guitar 2 - Palm Muted
E|------------------------------------------------------------------|
B|---555---555----------555---5555---555---555----------555---5555--|
G|------444---4444---444---444----------444---4444---444---444------|
D|-22--------------22--------------22--------------22---------------| X2
A|------------------------------------------------------------------|
e|------------------------------------------------------------------|

//Chorus:
Guitar 1
E|----------------------------------------------------------------|
B|----------------------------------------------------------------|
G|-22222222-44444444-66666666-99999999----------------------------|
D|-22222222-44444444-66666666-99999999----------------------------| X2
A|-00000000-22222222-44444444-77777777----------------------------|
e|----------------------------------------------------------------|

Guitar 2
E|-----0--------0--------0--------0-------------------------------|
B|---0---0----0---0----0---0----0---0-----------------------------|
G|----------------------------------------------------------------|
D|----------------------------------------------------------------| X2
A|-0--------2--------4--------7-----------------------------------|
e|----------------------------------------------------------------|

//Bridge:
Guitar 1
E|-0-0-0-0-0-0-0-0-----------------0-0-0-0-0-0-0-0-----------------|
B|-0-0-0-0-0-0-0-0-4-4-4-4-4-4-4-4-0-0-0-0-0-0-0-0-4-4-4-4-4-4-4-4-|
G|-----------------4-4-4-4-4-4-4-4-----------------4-4-4-4-4-4-4-4-|
D|-----------------------------------------------------------------|
A|-----------------------------------------------------------------|
e|-----------------------------------------------------------------|

Guitar 2
E|----------------------------------------------------------------|
B|-----5---5^-----------5-5^-----------5---5^------------5-5^-----|
G|-------4-4^---------4---4^-------------4-4^----------4---4^-----|
D|-2-2------------2-2--------------2-2-------------2-2------------|
A|----------------------------------------------------------------|
e|----------------------------------------------------------------|

//Verse:
Guitar 1
E|-0-0-0-0-0-0-0-0-----------------0-0-0-0-0-0-0-0------------------|
B|-0-0-0-0-0-0-0-0-4-4-4-4-4-4-4-4-0-0-0-0-0-0-0-0-4-4-4-4-4-4-4-4--|
G|-----------------4-4-4-4-4-4-4-4-----------------4-4-4-4-4-4-4-4--| X2
D|------------------------------------------------------------------|
A|------------------------------------------------------------------|
e|------------------------------------------------------------------|

Guitar 2 - Palm Muted
E|------------------------------------------------------------------|
B|---555---555----------555---5555---555---555----------555---5555--|
G|------444---4444---444---444----------444---4444---444---444------|
D|-22--------------22--------------22--------------22---------------| X2
A|------------------------------------------------------------------|
e|------------------------------------------------------------------|

//Chorus:
Guitar 1
E|----------------------------------------------------------------|
B|----------------------------------------------------------------|
G|-22222222-44444444-66666666-99999999----------------------------|
D|-22222222-44444444-66666666-99999999----------------------------| X4
A|-00000000-22222222-44444444-77777777----------------------------|
e|----------------------------------------------------------------|

Guitar 2
E|-----0--------0--------0--------0-------------------------------|
B|---0---0----0---0----0---0----0---0-----------------------------|
G|----------------------------------------------------------------|
D|----------------------------------------------------------------| X4
A|-0--------2--------4--------7-----------------------------------|
e|----------------------------------------------------------------|

//Solo:
Guitar 1
E|----------------------------------------------------------------|
B|----------------------------------------------------------------|
G|-666--666--666--666--666--666--666------------------------------|
D|-666--666--666--666--666--666--666------------------------------| X4
A|-444--444--444--444--444--444--444------------------------------|
e|----------------------------------------------------------------|

Guitar 2
E|---0-7---0-7-4h5p4---0-4-0-----4-0------------------------------|
B|-2-----2-----------2-------2-0----------------------------------|
G|----------------------------------------------------------------|
D|----------------------------------------------------------------| X4
A|----------------------------------------------------------------|
e|----------------------------------------------------------------|

//Interlude:
Guitar 1
E|--------------------------------------------------------------------------|
B|--------------------------------------------------------------------------|
G|-22222222-44444444-22222222-44444444-22222222-44444444-66666666-99999999--|
D|-22222222-44444444-22222222-44444444-22222222-44444444-66666666-99999999--| X2
A|-00000000-22222222-00000000-22222222-00000000-22222222-44444444-77777777--|
e|--------------------------------------------------------------------------|

Guitar 2
E|-----0--------0--------0--------0--------0--------0--------0--------0----|
B|---0---0----0---0----0---0----0---0----0---0----0---0----0---0----0---0--|
G|-------------------------------------------------------------------------|
D|-------------------------------------------------------------------------| X2
A|-0--------2--------0--------2--------0--------2--------4--------7--------|
e|-------------------------------------------------------------------------|

//Outro:
Guitar 1
E|-----------------------------------------------------------------|
B|-----------------------------------------------------------------|
G|-22-22-22-22-2-2---22-22-22-22-2-2---22-22-22-22-2-2---2222222---|(2)
D|-22-22-22-22-2-2---22-22-22-22-2-2---22-22-22-22-2-2---2222222---|(2)
A|-00-00-00-00-0-0---00-00-00-00-0-0---00-00-00-00-0-0---0000000---|(0)
e|-----------------------------------------------------------------|

Guitar 2
E|---0-7---0-7-4h5p4---0-4-0-----4-0-----0-7---0-7-4h5p4----------|
B|-2-----2-----------2-------2-0-------2-----2--------------------|
G|----------------------------------------------------------------|
D|----------------------------------------------------------------|
A|----------------------------------------------------------------|
e|----------------------------------------------------------------|

            
            
Suggest correction
Creating personal tab
Creating personal tab
You can edit any tab online and save it as your Personal.

You can edit, replace or remove any tab part or add personal notes – all changes will be seen only by you.

Personal tabs can be accessed anytime from any device, even offline.
Learn more »
comments
print report bad tab
2 comments total.
0 reply
im_bored 98 Dec 20, 2006 06:57 AM

----------------------------------------------
--5-5-5-5-5-5-5-5-4-4-4-4-4-4-4-4-------------
--4-4-4-4-4-4-4-4-4-4-4-4-4-4-4-4-------------
----------------------------------------------
----------------------------------------------
----------------------------------------------i play it like that

0 reply
Wakefield22 59 Oct 27, 2014 10:37 AM

----------------------------------------------
--5-5-5-5-5-5-5-5-4-4-4-4-4-4-4-4-------------
--6-6-6-6-6-6-6-6-4-4-4-4-4-4-4-4-------------
----------------------------------------------
----------------------------------------------
----------------------------------------------

It is actually played like this.

guest
Wanna post a correction for this tab? Suggest correction