Oops, an error
Loading. Please wait.

What It Feel Like To Be A Ghost tab

version 3
version 3

Whole song

438 views 1 this week
1 commentread comment
1 2 3 4 5
3 more votes to show rating
add to favorites
×
Save as Personal and add changes to this tab that will be seen only by you. Learn more ›
×
You can save this tab as Personal to edit and correct it or add notes. All changes will be seen only by you. Learn more »
launch autoscroll
font size
0
reset
how to read this tab
guitar tuner
edit
Autoscroll
slow
fast
+/-
esc
set tempo
stop
Author
What if feel like to e a ghost
Taking Back Sunday

Tabbed by: Razin8r
Email: over_soul1@hotmail.com

Legend
/= slide up
\= slide down
h= hammer on
p= pull off
~= let note ring
*= palm mute
b= bend note
x= mute string

D Drop Tuning

Guitar 1: [Distortion] Lead
Guitar 2: [Distortion] Rhythmic

(0.01)
Intro
Guitar 1
1
[-----------------|----------------|----------------|----------------]
[-----------------|----------------|----------------|----------------]
[-----------------|----------------|----------------|----------------]
[----5~-----5-----|-----5~----5----|----------------|----------------]
[-----------------|----------------|----5~----5-----|-----5~----5----]
[--7------7---7---|-7-7-----7---7--|--3-----3---3---|-3-3-----3---3--]

Guitar 1
5
[-----------------|----------------|----------------|----------------]
[-----------------|----------------|----------------|----------------]
[-----------------|----------------|----------------|----------------]
[----5~-----5-----|-----5~----5----|----------------|-----------0~---]
[-----------------|----------------|----5~----5-----|-------5b--0~---]
[--7------7---7---|-7-7-----7---7—-|--3-----3---3---|---3-3-----0~---]

Guitar 2
5
[-----------------|----------------|----------------|----------------]
[-----------------|----------------|----------------|----------------]
[--2\-------------|----------------|----------------|-----------0~---]
[--2\-------------|----------------|----------------|-----------0~---]
[--0\-------------|----------------|----------------|-----------0~---]
[-----------------|----------------|----------------|----------------]






Guitar 1
9
[-----------------|----------------|----------------|----------------]
[-----------------|----------------|----------------|----------------]
[-----------------|----------------|----------------|----------------]
[-----5~-----5----|-----5~----5----|----------------|----------------]
[-----------------|----------------|----5~----5-----|------5~----5---]
[---7------7---7--|-7-7-----7---7--|--3-----3---3---|--3-3-----3---3-]


Guitar 2
9
[-----------------|----------------|----------------|----------------]
[-----------------|----------------|----------------|----------------]
[---2--2--2-2-2---|-2-2-2---2-2-2--|----------------|----------------]
[---2--2--2-2-2---|-2-2-2---2-2-2--|--3--3--3-3-3---|--3-3-3---3-3-3-]
[---0--0--0-0-0---|-0-0-0---0-0-0--|--3--3--3-3-3---|--3-3-3---3-3-3-]
[-----------------|----------------|--3--3--3-3-3---|--3-3-3---3-3-3-]

Guitar 1
13
[-----------------|----------------|----------------|----------------]
[-----------------|----------------|----------------|----------------]
[-----------------|----------------|----------------|----------------]
[-----5~-----5----|------5~----5---|----------------|-----------0~---]
[-----------------|----------------|----5~----5-----|-------5b--0~---]
[---7------7---7--|--7-7-----7---7—|--3-----3---3---|---3-3-----0~---]

Guitar 2
13
[-----------------|----------------|----------------|----------------]
[-----------------|----------------|----------------|----------------]
[---2--2--2-2-2---|-2-2-2---2-2-2--|----------------|----------------]
[---2--2--2-2-2---|-2-2-2---2-2-2--|--3--3--3-3-3---|--3-3-3----0~---]
[---0--0--0-0-0---|-0-0-0---0-0-0--|--3--3--3-3-3---|--3-3-3----0~---]
[-----------------|----------------|--3--3--3-3-3---|--3-3-3----0~---]

(0.26)
Verse 1
Guitar 2
17
[-----------------|----------------|----------------|----------------]
[-----------------|----------------|----------------|----------------]
[-2-2-2-------2-2-|2-------2-2-----|----------------|----------------]
[-2-2-2-3-3-3-2-2-|2-3-3-3-2-2-3-3-|5-5-5-5-5-5-5-5-|5-5-5-5-5-5-5-5-]
[-0-0-0-3-3-3-0-0-|0-3-3-3-0-0-3-3-|5-5-5-5-5-5-5-5-|5-5-5-5-5-5-5-5-]
[-------3-3-3-----|--3-3-3-----3-3-|5-5-5-5-5-5-5-5-|5-5-5-5-5-5-5-5-]
**************************************************************
Guitar 1
21
[-----------------|----------------|----------------|----------------]
[-----------------|----------------|----------------|----------------]
[-----------------|------------5/7-|----------------|----------------]
[-----------------|----------------|----------------|----------------]
[-----------------|------------3/5-|----------------|----------------]
[-----------------|----------------|----------------|----------------]

Guitar 2
21
[-----------------|----------------|----------------|----------------]
[-----------------|----------------|----------------|----------------]
[-2-2-2-------2-2-|2-------2-2-----|----------------|----------------]
[-2-2-2-3-3-3-2-2-|2-3-3-3-2-2-3-3-|5-5-5-5-5-5-5-5-|5-5-5-5-5-5-5-5-]
[-0-0-0-3-3-3-0-0-|0-3-3-3-0-0-3-3-|5-5-5-5-5-5-5-5-|5-5-5-5-5-5-5-5-]
[-------3-3-3-----|--3-3-3-----3-3-|5-5-5-5-5-5-5-5-|5-5-5-5-5-5-5-5-]
**************************************************************

Guitar 1
25
[---------------------|------------------|---------------------|>
[---------------------|------------------|---------------------|>
[---------------------|------------------|---------------------|>
[14-15-14-12-15-12--15|-----15--14-15--15|14-15-14-12-15-12—-15|>
[-----------------15--|15-14--12-----12--|-----------------15--|>
[---------------------|------------------|---------------------|>

<|------------------]
<|------------------]
<|------------------]
<|—-15-----14-15--15]
<|15--14-12-----12--]
<|------------------]

Guitar 2
25
[-----------------|----------------|----------------|----------------]
[-----------------|----------------|----------------|----------------]
[-2-2-2-------2-2-|2-------2-2-----|----------------|----------------]
[-2-2-2-3-3-3-2-2-|2-3-3-3-2-2-3-3-|5-5-5-5-5-5-5-5-|5-5-5-5-5-5-5-5-]
[-0-0-0-3-3-3-0-0-|0-3-3-3-0-0-3-3-|5-5-5-5-5-5-5-5-|5-5-5-5-5-5-5-5-]
[-------3-3-3-----|--3-3-3-----3-3-|5-5-5-5-5-5-5-5-|5-5-5-5-5-5-5-5-]
**************************************************************

Guitar 1
29
[---------------------|------------------|---------------------|>
[---------------------|------------------|---------------------|>
[---------------------|------------------|---------------------|>
[14-15-14-12-15-12--15|-----15--14-15--15|14-15-14-12-15-12—-15|>
[-----------------15--|15-14--12-----12--|-----------------15--|>
[---------------------|------------------|---------------------|>

<|------------------]
<|------------------]
<|------------------]
<|—----15-----------]
<|15-14------5---5--]
<|---------3---3----]






Guitar 2
29
[-----------------|----------------|----------------|----------------]
[-----------------|----------------|----------------|----------------]
[-2-2-2-------2-2-|2-------2-2-----|----------------|----------------]
[-2-2-2-3-3-3-2-2-|2-3-3-3-2-2-3-3-|5-5-5-5-5-5-5-5-|5-5-5-----------]
[-0-0-0-3-3-3-0-0-|0-3-3-3-0-0-3-3-|5-5-5-5-5-5-5-5-|5-5-5-----5---5-]
[-------3-3-3-----|--3-3-3-----3-3-|5-5-5-5-5-5-5-5-|5-5-5---3---3---]
**************************************************************

(0.51)
Chorus
Guitar 1
33
[-----------------|----------------|---------------|-----------------]
[-----------------|----------------|---------------|-----------------]
[-13--------------|-12-------------|---------------|-----------------]
[--x-X8-----------|--x-X8----------|---------------|-----------------]
[-12--------------|-10-------------|------5~---5---|------5~---5-----]
[-----------------|----------------|---3-----3---3-|-3-3-----3---3---]

Guitar 2
33
[-----------------|----------------|----------------|----------------]
[-----------------|----------------|----------------|----------------]
[-2-2-2-2-2-2-2-2-|-2-2-2-2-2-2-2-2|----------------|----------------]
[-2-2-2-2-2-2-2-2-|-2-2-2-2-2-2-2-2|-3-3-3-3-3-3-3-3|-3-3-3-3-3-3-3-3]
[-0-0-0-0-0-0-0-0-|-0-0-0-0-0-0-0-0|-3-3-3-3-3-3-3-3|-3-3-3-3-3-3-3-3]
[-----------------|----------------|-3-3-3-3-3-3-3-3|-3-3-3-3-3-3-3-3]

Guitar 1
37
[-----------------|----------------|----------------|----------------]
[-----------------|----------------|----------------|----------------]
[-13--------------|-12-------------|----------------|----------------]
[--x-X8-----------|--x-X8----------|----------------|-----------0----]
[-12--------------|-10-------------|------5~---5----|------5b---0----]
[-----------------|----------------|---3-----3---3--|-3-3-------0----]

Guitar 2
37
[-----------------|----------------|----------------|----------------]
[-----------------|----------------|----------------|----------------]
[-2-2-2-2-2-2-2-2-|-2-2-2-2-2-2-2-2|----------------|----------------]
[-2-2-2-2-2-2-2-2-|-2-2-2-2-2-2-2-2|-3-3-3-3-3-3-3-3|-3-3-3-3-3-0----]
[-0-0-0-0-0-0-0-0-|-0-0-0-0-0-0-0-0|-3-3-3-3-3-3-3-3|-3-3-3-3-3-0----]
[-----------------|----------------|-3-3-3-3-3-3-3-3|-3-3-3-3-3-0----]

Guitar 1
41
[-----------------|----------------|----------------|----------------]
[-----------------|----------------|----------------|----------------]
[--2--2---2-2-2---|--2-2-2--2-2-2--|----------------|----------------]
[--2--2---2-2-2---|--2-2-2--2-2-2--|---3--3--3-3-3--|--3-3-3—-3-3-3--]
[--0--0---0-0-0---|--0-0-0--0-0-0--|---3--3--3-3-3--|--3-3-3—-3-3-3--]
[-----------------|----------------|---3--3--3-3-3--|--3-3-3--3-3-3--]

Guitar 2
41
[-----------------|----------------|----------------|----------------]
[-----------------|----------------|----------------|----------------]
[--2--2---2-2-2---|--2-2-2--2-2-2--|----------------|----------------]
[--2--2---2-2-2---|--2-2-2--2-2-2--|---3--3--3-3-3--|--3-3-3—-3-3-3--]
[--0--0---0-0-0---|--0-0-0--0-0-0--|---3--3--3-3-3--|--3-3-3—-3-3-3--]
[-----------------|----------------|---3--3--3-3-3--|--3-3-3--3-3-3--]

Guitar 1
45
[-----------------|----------------|----------------|----------------]
[-----------------|----------------|----------------|----------------]
[--2--2---2-2-2---|--2-2-2--2-2-2--|----------------|----------------]
[--2--2---2-2-2---|--2-2-2--2-2-2--|----------------|-----------0----]
[--0--0---0-0-0---|--0-0-0--0-0-0--|----—-5~---5----|------5b---0----]
[-----------------|----------------|---3-----3---3--|-3-3-------0----]

Guitar 2
45
[-----------------|----------------|----------------|----------------]
[-----------------|----------------|----------------|----------------]
[--2--2---2-2-2---|--2-2-2--2-2-2--|----------------|----------------]
[--2--2---2-2-2---|--2-2-2--2-2-2--|---3—-3—-3-3-3--|--3-3-3----0----]
[--0--0---0-0-0---|--0-0-0--0-0-0--|---3—-3—-3-3-3--|--3-3-3----0----]
[-----------------|----------------|---3—-3—-3-3-3--|--3-3-3—---0----]

 (1.17)
Verse 2
Guitar 1
49
[-----------------|----------------|----------------|----------------]
[-----------------|----------------|----------------|----------------]
[-5-5-5-5-5-5-5-5-|-5-5-5-5-5-5-5-5|-4-4-4-4-4-4-4-4|-4-4-4-4-4-4-4-4]
[-5-5-5-5-5-5-5-5-|-5-5-5-5-5-5-5-5|-5-5-5-5-5-5-5-5|-5-5-5-5-5-5-5-5]
[-----------------|----------------|----------------|----------------]
[-----------------|----------------|----------------|----------------]
  ***************************************************************

Guitar 2
49
[-----------------|----------------|----------------|----------------]
[-----------------|----------------|----------------|----------------]
[-----------------|----------------|----------------|----------------]
[-----------------|----------------|-----5---5-5-5-5|-5-5-5-5-5-5-5-5]
[-----------------|----------------|-----5---5-5-5-5|-5-5-5-5-5-5-5-5]
[-----------------|----------------|-----5---5-5-5-5|-5-5-5-5-5-5-5-5]

Guitar 1
53
[-----------------|----------------|----------------|----------------]
[-----------------|----------------|----------------|----------------]
[-----------------|------------5/7-|----------------|----------------]
[-----------------|----------------|----------------|----------------]
[-----------------|------------3/5-|----------------|----------------]
[-----------------|----------------|----------------|----------------]

Guitar 2
53
[-----------------|----------------|----------------|----------------]
[-----------------|----------------|----------------|----------------]
[-2-2-2-------2-2-|2-------2-2-----|----------------|----------------]
[-2-2-2-3-3-3-2-2-|2-3-3-3-2-2-3-3-|5-5-5-5-5-5-5-5-|5-5-5-5-5-5-5-5-]
[-0-0-0-3-3-3-0-0-|0-3-3-3-0-0-3-3-|5-5-5-5-5-5-5-5-|5-5-5-5-5-5-5-5-]
[-------3-3-3-----|--3-3-3-----3-3-|5-5-5-5-5-5-5-5-|5-5-5-5-5-5-5-5-]
**************************************************************

Guitar 1
57
[---------------------|------------------|---------------------|>
[---------------------|------------------|---------------------|>
[---------------------|------------------|---------------------|>
[14-15-14-12-15-12--15|-----15--14-15--15|14-15-14-12-15-12—-15|>
[-----------------15--|15-14--12-----12--|-----------------15--|>
[---------------------|------------------|---------------------|>

<|------------------]
<|------------------]
<|------------------]
<|—----15--14-15--15]
<|15-14--12-----12--]
<|------------------]

Guitar 2
57
[-----------------|----------------|----------------|----------------]
[-----------------|----------------|----------------|----------------]
[-2-2-2-------2-2-|2-------2-2-----|----------------|----------------]
[-2-2-2-3-3-3-2-2-|2-3-3-3-2-2-3-3-|5-5-5-5-5-5-5-5-|5-5-5-5-5-5-5-5-]
[-0-0-0-3-3-3-0-0-|0-3-3-3-0-0-3-3-|5-5-5-5-5-5-5-5-|5-5-5-5-5-5-5-5-]
[-------3-3-3-----|--3-3-3-----3-3-|5-5-5-5-5-5-5-5-|5-5-5-5-5-5-5-5-]
**************************************************************
Guitar 1
61
[---------------------|------------------|---------------------|>
[---------------------|------------------|---------------------|>
[---------------------|------------------|---------------------|>
[14-15-14-12-15-12--15|-----15--14-15--15|14-15-14-12-15-12—-15|>
[-----------------15--|15-14--12-----12--|-----------------15--|>
[---------------------|------------------|---------------------|>

<|------------------]
<|------------------]
<|------------------]
<|—----15-----------]
<|15-14-------------]
<|------------------]






Guitar 2
61
[-----------------|----------------|----------------|----------------]
[-----------------|----------------|----------------|----------------]
[-2-2-2-------2-2-|2-------2-2-----|----------------|----------------]
[-2-2-2-3-3-3-2-2-|2-3-3-3-2-2-3-3-|5-5-5-5-5-5-5-5-|5-5-5-5-5-5-5-5-]
[-0-0-0-3-3-3-0-0-|0-3-3-3-0-0-3-3-|5-5-5-5-5-5-5-5-|5-5-5-5-5-5-5-5-]
[-------3-3-3-----|--3-3-3-----3-3-|5-5-5-5-5-5-5-5-|5-5-5-5-5-5-5-5-]
**************************************************************

(1.42)
Chorus
Guitar 1
65
[-----------------|----------------|---------------|-----------------]
[-----------------|----------------|---------------|-----------------]
[-13--------------|-12-------------|---------------|-----------------]
[--x-X8-----------|--x-X8----------|---------------|-----------------]
[-12--------------|-10-------------|------5~---5---|------5~---5-----]
[-----------------|----------------|---3-----3---3-|-3-3-----3---3---]

Guitar 2
65
[-----------------|----------------|----------------|----------------]
[-----------------|----------------|----------------|----------------]
[-2-2-2-2-2-2-2-2-|-2-2-2-2-2-2-2-2|----------------|----------------]
[-2-2-2-2-2-2-2-2-|-2-2-2-2-2-2-2-2|-3-3-3-3-3-3-3-3|-3-3-3-3-3-3-3-3]
[-0-0-0-0-0-0-0-0-|-0-0-0-0-0-0-0-0|-3-3-3-3-3-3-3-3|-3-3-3-3-3-3-3-3]
[-----------------|----------------|-3-3-3-3-3-3-3-3|-3-3-3-3-3-3-3-3]

Guitar 1
69
[-----------------|----------------|----------------|----------------]
[-----------------|----------------|----------------|----------------]
[-13--------------|-12-------------|----------------|----------------]
[--x-X8-----------|--x-X8----------|----------------|-----------0----]
[-12--------------|-10-------------|------5~---5----|------5b---0----]
[-----------------|----------------|---3-----3---3--|-3-3-------0----]

Guitar 2
69
[-----------------|----------------|----------------|----------------]
[-----------------|----------------|----------------|----------------]
[-2-2-2-2-2-2-2-2-|-2-2-2-2-2-2-2-2|----------------|----------------]
[-2-2-2-2-2-2-2-2-|-2-2-2-2-2-2-2-2|-3-3-3-3-3-3-3-3|-3-3-3-3-3-0----]
[-0-0-0-0-0-0-0-0-|-0-0-0-0-0-0-0-0|-3-3-3-3-3-3-3-3|-3-3-3-3-3-0----]
[-----------------|----------------|-3-3-3-3-3-3-3-3|-3-3-3-3-3-0----]

Guitar 1
73
[-----------------|----------------|----------------|----------------]
[-----------------|----------------|----------------|----------------]
[--2--2---2-2-2---|--2-2-2--2-2-2--|----------------|----------------]
[--2--2---2-2-2---|--2-2-2--2-2-2--|---3--3--3-3-3--|--3-3-3—-3-3-3--]
[--0--0---0-0-0---|--0-0-0--0-0-0--|---3--3--3-3-3--|--3-3-3—-3-3-3--]
[-----------------|----------------|---3--3--3-3-3--|--3-3-3--3-3-3--]

Guitar 2
73
[-----------------|----------------|----------------|----------------]
[-----------------|----------------|----------------|----------------]
[--2--2---2-2-2---|--2-2-2--2-2-2--|----------------|----------------]
[--2--2---2-2-2---|--2-2-2--2-2-2--|---3--3--3-3-3--|--3-3-3—-3-3-3--]
[--0--0---0-0-0---|--0-0-0--0-0-0--|---3--3--3-3-3--|--3-3-3—-3-3-3--]
[-----------------|----------------|---3--3--3-3-3--|--3-3-3--3-3-3--]
Guitar 1
77
[-----------------|----------------|----------------|----------------]
[-----------------|----------------|----------------|----------------]
[--2--2---2-2-2---|--2-2-2--2-2-2--|----------------|----------------]
[--2--2---2-2-2---|--2-2-2--2-2-2--|----------------|----------------]
[--0--0---0-0-0---|--0-0-0--0-0-0--|----—-5~---5----|-----5------5---]
[-----------------|----------------|---3-----3---3--|-3-3---3-3-3---3]

Guitar 2
77
[-----------------|----------------|----------------|----------------]
[-----------------|----------------|----------------|----------------]
[--2--2---2-2-2---|--2-2-2--2-2-2--|----------------|----------------]
[--2--2---2-2-2---|--2-2-2--2-2-2--|---3—-3—-3-3-3--|-3-3-3-3-3-3-3-3]
[--0--0---0-0-0---|--0-0-0--0-0-0--|---3—-3—-3-3-3--|-3-3-3-3-3-3-3-3]
[-----------------|----------------|---3—-3—-3-3-3--|-3-3-3-3-3-3-3-3]

Guitar 1
81
[-----------------|
[-----------------|
[-----------------|
[-----------------|
[------5-----5----|
[--3-3---3-3------|

Guitar 2
81
[-----------------|
[-----------------|
[-----------------|
[--3-3-3-3-3-0----|
[--3-3-3-3-3-0----|
[--3-3-3-3-3-0----|

(2.10)
Bridge
Guitar 1
83
[-----------------|----------------|----------------|-----3----------]
[--5~-------------|----------------|----------------|-------1----0---]
[--5~-------------|----------------|----------------|--0-------------]
[--5~-------------|----------------|----------------|----------------]
[--3~-------------|----------------|----------------|----------------]
[-----------------|----------------|----------------|----------------]



Guitar 2
83
[-----------------|----------------|----------------|----------------]
[-^5~-------------|----------------|----------------|----------------]
[-|5~-------------|----------------|----------------|----------------]
[-|5~-------------|----------------|----------------|----------------]
[-|3~-------------|----------------|----------------|----------------]
[-----------------|----------------|----------------|----------------]

Guitar 1
87
[-----------------|----------------|----------------|----------------]
[--1--------------|----------------|----------------|----------------]
[-----------------|----------------|----------------|----------------]
[-----------------|----------------|----------------|----------------]
[-----------------|----------------|----------------|----------------]
[-----------------|----------------|----------------|----------------]

Guitar 2
87
[-----------------|----------------|----------------|----------------]
[-----------------|----------------|-^5~------------|----------------]
[-----------------|----------------|-|5~------------|----------------]
[-----------------|----------------|-|5~------------|----------------]
[-----------------|----------------|-|3~------------|----------------]
[-----------------|----------------|----------------|----------------]

Guitar 1
91
[-----------------|----------------|----------------|---------3-3-3-3]
[--5-5-5-5-5-5-5-5|-5-5-5-5-5-5-5-5|-5-5-5-5-5-5-5-5|-5-5-5-5--------]
[-----------------|----------------|----------------|----------------]
[-----------------|----------------|----------------|----------------]
[-----------------|----------------|----------------|----------------]
[-----------------|----------------|----------------|----------------]

Guitar 2
91
[-----------------|----------------|----------------|----------------]
[-^5~-------------|----------------|----------------|----------------]
[-|5~-------------|----------------|----------------|----------------]
[-|5~-------------|----------------|----------------|----------------]
[-|3~-------------|----------------|----------------|----------------]
[-----------------|----------------|----------------|----------------]

Guitar 1
95
[-----------------|---------3-3-3-3|----------------|----------------]
[-5-5-5-5-5-5-5-5-|-5-5-5-5--------|-5-5-5-5-5-5-5-5|-5-5-5-5-5-5-5-5]
[-----------------|----------------|----------------|----------------]
[-----------------|----------------|----------------|----------------]
[-----------------|----------------|----------------|----------------]
[-----------------|----------------|----------------|----------------]




Guitar 2
95
[-----------------|----------------|----------------|----------------]
[-----------------|----------------|^5~-------------|----------------]
[-----------------|----------------||5~-------------|----------------]
[-----------------|----------------||5~-------------|----------------]
[-----------------|----------------||3~-------------|----------------]
[-----------------|----------------|----------------|----------------]

Guitar 1
99
[-----------------|----------------|----------------|----------------]
[-5-5-5-5-5-5-5-5-|-5-5-5-5-6-6-6-6|-3-3-3-3-3-3-3-3|-3-3-3-3/5-5-5-5]
[-----------------|----------------|----------------|----------------]
[-----------------|----------------|----------------|----------------]
[-----------------|----------------|----------------|----------------]
[-----------------|----------------|----------------|----------------]

Guitar 2
99
[-----------------|----------------|----------------|----------------]
[-^5~-------------|----------------|----------------|----------------]
[-|5~-------------|----------------|----------------|----------------]
[-|5~-------------|----------------|----------------|----------------]
[-|3~-------------|----------------|----------------|----------------]
[-----------------|----------------|----------------|----------------]

Guitar 1
103
[-----------------|----------------|----------------|----------------]
[-5-5-5-5-5-5-5-5-|-5-5-5-5-6-6-6-6|----------------|----------------]
[-----------------|----------------|-5-5-5-5-5-5-5-5|-5-5-5-5-5-5-5-5]
[-----------------|----------------|----------------|----------------]
[-----------------|----------------|----------------|----------------]
[-----------------|----------------|----------------|----------------]

Guitar 2
103
[-----------------|----------------|----------------|----------------]
[-----------------|----------------|^5~-------------|----------------]
[-----------------|----------------||5~-------------|----------------]
[-----------------|----------------||5~-------------|----------------]
[-----------------|----------------||3~-------------|----------------]
[-----------------|----------------|----------------|----------------]

Guitar 1
107
[-----------------|----------------|----------------|----------------]
[-5-5-5-5-5-5-5-5-|-5-5-5-5-6-6-6-6|-3-3-3-3-3-3-3-3|-3-3-3-3-5-5-5-5]
[-----------------|----------------|----------------|----------------]
[-----------------|----------------|----------------|----------------]
[-----------------|----------------|----------------|----------------]
[-----------------|----------------|----------------|----------------]




Guitar 2
107
[-----------------|----------------|----------------|----------------]
[-^5~-------------|----------------|----------------|----------------]
[-|5~-------------|----------------|----------------|----------------]
[-|5~-------------|----------------|----------------|----------------]
[-|3~-------------|----------------|----------------|----------------]
[-----------------|----------------|----------------|----------------]

Guitar 1
111
[-----------------|----------------]
[-5-5-5-5-5-5-5-5-|-5-5-5-5-6-6-6-6]
[-----------------|----------------]
[-----------------|----------------]
[-----------------|----------------]
[-----------------|----------------]

Guitar 1
113
[-----------------|----------------|----------------|----------------]
[-5-5-5-5-5-5-5-5-|-5-5-5-5-5-5-5-5|-5-5-5-5-5-5-5-5|-5-5-5-5-5-5-5-5]
[-----------------|----------------|----------------|----------------]
[-----------------|----------------|----------------|----------------]
[-----------------|----------------|----------------|----------------]
[-----------------|----------------|----------------|----------------]

Guitar 2
113
[-----------------|----------------|----------------|----------------]
[-----------------|----------------|----------------|----------------]
[-5------7--------|-9-----10-------|-9-----10-------|-12-----13------]
[---X4-----X4-----|---X4-----X4----|---X4----X4-----|----X4-----X4---]
[-3------5--------|-7------8-------|-7------8-------|-10-----11------]
[-----------------|----------------|----------------|----------------]

Guitar 1
117
[-----------------|----------------|----------------|----------------]
[-----------------|----------------|----------------|----------------]
[-----------------|----------------|----------------|----------------]
[----5~-----5-----|-----5~----5----|-----5~----5----|-----5~----0~---]
[-----------------|----------------|----------------|-----------0~---]
[--7------7---7---|-7-7-----7---7--|-7-7-----7---7--|-7-7-------0~---]

Guitar 2
117
[-----------------|----------------|----------------|----------------]
[-----------------|----------------|----------------|----------------]
[--2\-------------|----------------|----------------|-----------0~---]
[--2\-------------|----------------|----------------|-----------0~---]
[--0\-------------|----------------|----------------|-----------0~---]
[-----------------|----------------|----------------|----------------]




(3.13)
Chorus
Guitar 1
121
[-----------------|----------------|---------------|-----------------]
[-----------------|----------------|---------------|-----------------]
[-13--------------|-12-------------|---------------|-----------------]
[--x-X8-----------|--x-X8----------|---------------|-----------------]
[-12--------------|-10-------------|------5~---5---|------5~---5-----]
[-----------------|----------------|---3-----3---3-|-3-3-----3---3---]

Guitar 2
121
[-----------------|----------------|----------------|----------------]
[-----------------|----------------|----------------|----------------]
[-2-2-2-2-2-2-2-2-|-2-2-2-2-2-2-2-2|----------------|----------------]
[-2-2-2-2-2-2-2-2-|-2-2-2-2-2-2-2-2|-3-3-3-3-3-3-3-3|-3-3-3-3-3-3-3-3]
[-0-0-0-0-0-0-0-0-|-0-0-0-0-0-0-0-0|-3-3-3-3-3-3-3-3|-3-3-3-3-3-3-3-3]
[-----------------|----------------|-3-3-3-3-3-3-3-3|-3-3-3-3-3-3-3-3]

Guitar 1
125
[-----------------|----------------|----------------|----------------]
[-----------------|----------------|----------------|----------------]
[-13--------------|-12-------------|----------------|----------------]
[--x-X8-----------|--x-X8----------|----------------|-----------0----]
[-12--------------|-10-------------|------5~---5----|------5b---0----]
[-----------------|----------------|---3-----3---3--|-3-3-------0----]

Guitar 2
125
[-----------------|----------------|----------------|----------------]
[-----------------|----------------|----------------|----------------]
[-2-2-2-2-2-2-2-2-|-2-2-2-2-2-2-2-2|----------------|----------------]
[-2-2-2-2-2-2-2-2-|-2-2-2-2-2-2-2-2|-3-3-3-3-3-3-3-3|-3-3-3-3-3-0----]
[-0-0-0-0-0-0-0-0-|-0-0-0-0-0-0-0-0|-3-3-3-3-3-3-3-3|-3-3-3-3-3-0----]
[-----------------|----------------|-3-3-3-3-3-3-3-3|-3-3-3-3-3-0----]

Guitar 1
129
[-----------------|----------------|----------------|----------------]
[-----------------|----------------|----------------|----------------]
[--2--2---2-2-2---|--2-2-2--2-2-2--|----------------|----------------]
[--2--2---2-2-2---|--2-2-2--2-2-2--|---3--3--3-3-3--|--3-3-3—-3-3-3--]
[--0--0---0-0-0---|--0-0-0--0-0-0--|---3--3--3-3-3--|--3-3-3—-3-3-3--]
[-----------------|----------------|---3--3--3-3-3--|--3-3-3--3-3-3--]


Guitar 2
129
[-----------------|----------------|----------------|----------------]
[-----------------|----------------|----------------|----------------]
[--2--2---2-2-2---|--2-2-2--2-2-2--|----------------|----------------]
[--2--2---2-2-2---|--2-2-2--2-2-2--|---3--3--3-3-3--|--3-3-3—-3-3-3--]
[--0--0---0-0-0---|--0-0-0--0-0-0--|---3--3--3-3-3--|--3-3-3—-3-3-3--]
[-----------------|----------------|---3--3--3-3-3--|--3-3-3--3-3-3--]

Guitar 1
133
[-----------------|----------------|----------------|----------------]
[-----------------|----------------|----------------|----------------]
[--2--2---2-2-2---|--2-2-2--2-2-2--|----------------|----------------]
[--2--2---2-2-2---|--2-2-2--2-2-2--|----------------|-----------0----]
[--0--0---0-0-0---|--0-0-0--0-0-0--|----—-5~---5----|------5b---0----]
[-----------------|----------------|---3-----3---3--|-3-3-------0----]

Guitar 2
133
[-----------------|----------------|----------------|----------------]
[-----------------|----------------|----------------|----------------]
[--2--2---2-2-2---|--2-2-2--2-2-2--|----------------|----------------]
[--2--2---2-2-2---|--2-2-2--2-2-2--|---3—-3—-3-3-3--|--3-3-3----0----]
[--0--0---0-0-0---|--0-0-0--0-0-0--|---3—-3—-3-3-3--|--3-3-3----0----]
[-----------------|----------------|---3—-3—-3-3-3--|--3-3-3—---0----]

(3.39)
Outro
Guitar 1
137
[-----------------|----------------|----------------]
[-----------------|----------------|----------------]
[-----------------|----------------|----------------]
[------5~----5----|-------5~---5---|----------------]
[-----------------|----------------|----------------]
[----7-----7---7--|---7-7----7---7—|-7\-------------]

Guitar 2
137
[-----------------|----------------|----------------]
[-----------------|----------------|----------------]
[-----------------|----------------|----------------]
[------5~----5----|-------5~---5---|----------------]
[-----------------|----------------|----------------]
[----7-----7---7--|---7-7----7---7—|-7\-------------]

            
            
Suggest correction
Creating personal tab
Creating personal tab
You can edit any tab online and save it as your Personal.

You can edit, replace or remove any tab part or add personal notes – all changes will be seen only by you.

Personal tabs can be accessed anytime from any device, even offline.
Learn more »
Give kudos to tab author, rate the tab!
1 2 3 4 5
comments
print report bad tab
1 comment total.
+1 reply
Alexishxc1337 368 Feb 28, 2009 06:27 AM

this song's in drop Db.
you can clearly hear the open Db chord in the beginning when the drums kick in.

guest
You may want to rate the tab now too:
select rating
Wanna post a correction for this tab? Suggest correction