Oops, an error
Loading. Please wait.

You Know How I Do tab

version 3
version 3

Whole song

Interactive

2,528 views 1 this week
no commentswrite comment
1 2 3 4 5
2 more votes to show rating
add to favorites
×
Save as Personal and add changes to this tab that will be seen only by you. Learn more ›
×
You can save this tab as Personal to edit and correct it or add notes. All changes will be seen only by you. Learn more »
launch autoscroll
font size
0
reset
how to read this tab
guitar tuner
edit
Autoscroll
slow
fast
+/-
esc
set tempo
stop
Author
Difficulty
You Know How I Do – Taking Back Sunday

This is the first song I’ve ever tabbed, so sorry for any errors…

 ____________
| Symbol Key |
|____________|

/ = slide up
~ = sustain
x = mute string
* = palm mute
(?) = gradually release (ex: (*) = gradually release palm mute)

 ___________________
| Intro (0:02-0:14) |
|___________________|

Guitar 1:
eb| |---------------------------------|---------------------------------|
Bb| |---------------------------------|---------------------------------|
Gb| |---------------------------------|---------------------------------|
Db| |-----------------1-1-1-3-3-3-3-3-|-----------------1-1-1-3-3-3-3-3-|
Ab| |-1-1-1-1-1-1-1-1-----------------|-1-1-1-1-1-1-1-1-----------------|
Eb| |---------------------------------|---------------------------------|
                                                                        |
Guitar 1:                                                               |
eb| |---------------------------------|---------------------------------|
Bb| |---------------------------------|---------------------------------|
Gb| |---------------------------------|---------------------------------|
Db| |-----------------1-1-1-3-3-3-3-3-|-----------------1-1-1-3-3-3-3-3-|
Ab| |-1-1-1-1-1-1-1-1-----------------|-1-1-1-1-1-1-1-1-----------------|
Eb| |---------------------------------|---------------------------------|
                                                                        |
Guitar 2:                                                               |
eb| |---------------------------------|---------------------------------|
Bb| |-4~------------------------------|-------------------5~------------|
Gb| |-4~------------------------------|---4-----------------------------|
Db| |-4~------------------------------|-------3~------------------------|
Ab| |---------------------------------|---------------------------------|
Eb| |---------------------------------|---------------------------------|

 ___________________
| Verse (0:15-0:36) |
|___________________|

Guitar 1:
eb| |---------------------------------|--------------------------------------------|
Bb| |---------------------------------|--------------------------------------------|
Gb| |---------------------------------|--------------------------------------------|
Db| |-----------------1-1-1-3-3-3-3-3-|-----------------1-1-1-3-3-3-3-3------------|
Ab| |-1-1-1-1-1-1-1-1-----------------|-1-1-1-1-1-1-1-1----------------------------|
Eb| |---------------------------------|--------------------------------------------|
So sick, so sick of being        And oh so tired of being sick--|

                                tired

Guitar 2:                                                               |
eb| |---------------------------------|---------------------------------|
Bb| |-0-0-0-0-0-0-0-0-0-0-0-0-0-0-0-0-|-0-0-0-0-0-0-0-0-0-0-0-0-0-0-0-0-|
Gb| |-4-4-4-4-4-4-4-4-4-4-4-4-4-4-4-4-|-4-4-4-4-4-4-4-4-4-4-4-4-4-4-4-4-|
Db| |-x-x-x-x-x-x-x-x-x-x-x-x-x-x-x-x-|-x-x-x-x-x-x-x-x-x-x-x-x-x-x-x-x-|
Ab| |-2-2-2-2-2-2-2-2-2-2-2-2-2-2-2-2-|-2-2-2-2-2-2-2-2-2-2-2-2-2-2-2-2-|
Eb| |---------------------------------|---------------------------------|
                                                                        |
Guitar 1:                                                               |
eb| |---------------------------------|---------------------------------|
Bb| |---------------------------------|---------------------------------|
Gb| |---------------------------------|---------------------------------|
Db| |-----------------1-1-1-3-3-3-3-3-|-----------------1-1-1-3-3-3-3-3-|
Ab| |-1-1-1-1-1-1-1-1-----------------|-1-1-1-1-1-1-1-1-----------------|
Eb| |---------------------------------|---------------------------------|
        We’re both such magnificent      So crush me baby, I’m all ears |
                               liars                                    |
Guitar 2:                                                               |
eb| |---------------------------------|---------------------------------|
Bb| |-0-0-0-0-0-0-0-0-0-0-0-0-0-0-0-0-|-0-0-0-0-0-0-0-0-0-0-0-0-0-0-0-0-|
Gb| |-4-4-4-4-4-4-4-4-4-4-4-4-4-4-4-4-|-4-4-4-4-4-4-4-4-4-4-4-4-4-4-4-4-|
Db| |-x-x-x-x-x-x-x-x-x-x-x-x-x-x-x-x-|-x-x-x-x-x-x-x-x-x-x-x-x-x-x-x-x-|
Ab| |-2-2-2-2-2-2-2-2-2-2-2-2-2-2-2-2-|-2-2-2-2-2-2-2-2-2-2-2-2-2-2-2-2-|
Eb| |-0-0-0-0-0-0-0-0-0-0-0-0-0-0-0-0-|-0-0-0-0-0-0-0-0-0-0-0-0-0-0-0-0-|
                                                                        |
Guitar 1:                                                               |
eb| |---------------------------------|---------------------------------|
Bb| |---------------------------------|---------------------------------|
Gb| |---------------------------------|---------------------------------|
Db| |-----------------1-1-1-3-3-3-3-3-|-----------------1-1-1-3-3-3-3-3-|
Ab| |-1-1-1-1-1-1-1-1-----------------|-1-1-1-1-1-1-1-1-----------------|
Eb| |---------------------------------|---------------------------------|
         So obviously desperate             So desperately obvious      |
Guitar 2:                                                               |
eb| |---------------------------------|---------------------------------|
Bb| |-0-0-0-0-0-0-0-0-0-0-0-0-0-0-0-0-|-0-0-0-0-0-0-0-0-0-0-0-0-0-0-0-0-|
Gb| |-4-4-4-4-4-4-4-4-4-4-4-4-4-4-4-4-|-4-4-4-4-4-4-4-4-4-4-4-4-4-4-4-4-|
Db| |-x-x-x-x-x-x-x-x-x-x-x-x-x-x-x-x-|-x-x-x-x-x-x-x-x-x-x-x-x-x-x-x-x-|
Ab| |-2-2-2-2-2-2-2-2-2-2-2-2-2-2-2-2-|-2-2-2-2-2-2-2-2-2-2-2-2-2-2-2-2-|
Eb| |---------------------------------|---------------------------------|
                                                                        |
Guitar 1:                                                               |
eb| |---------------------------------|---------------------------------|
Bb| |---------------------------------|---------------------------------|
Gb| |---------------------------------|---------------------------------|
Db| |-----------------1-1-1-3-3-3-3-3-|-----------------1-1-1-3-3-3-3-3-|
Ab| |-1-1-1-1-1-1-1-1-----------------|-1-1-1-1-1-1-1-1-----------------|
Eb| |---------------------------------|---------------------------------|
      I’ll give in one more time       you stupid lines all about “it’s |
                             and feed                                   |
Guitar 2:                                                               |
eb| |---------------------------------|---------------------------------|
Bb| |-0-0-0-0-0-0-0-0-0-0-0-0-0-0-0-0-|-0-0-0-0-0-0-0-0-0-0-0-0-0-0-0-0-|
Gb| |-4-4-4-4-4-4-4-4-4-4-4-4-4-4-4-4-|-4-4-4-4-4-4-4-4-4-4-4-4-4-4-4-4-|
Db| |-x-x-x-x-x-x-x-x-x-x-x-x-x-x-x-x-|-x-x-x-x-x-x-x-x-x-x-x-x-x-x-x-x-|
Ab| |-2-2-2-2-2-2-2-2-2-2-2-2-2-2-2-2-|-2-2-2-2-2-2-2-2-2-2-2-2-2-2-2-2-|
Eb| |-0-0-0-0-0-0-0-0-0-0-0-0-0-0-0-0-|-0-0-0-0-0-0-0-0-0-0-0-0-0-0-0-0-|
                                                                        |
 ____________________
| Chorus (0:37-0:59) |
|____________________|

Guitar 1:
eb| |----------------------------------|----------------------------------|
Bb| |-00000000000000000000000000000000-|----------------------------------|
Gb| |-88888888888888888888888888888888-|-00000000000000000000000000000000-|
Db| |----------------------------------|-88888888888888888888888888888888-|
Ab| |----------------------------------|----------------------------------|
Eb| |----------------------------------|----------------------------------|
     basic”                             We won’t stand for hazy eyes any
       (We won’t stand for hazy eyes anymore)
Guitar 2:
eb| |------------------------------------------------------------------|
Bb| |------------------------------------------------------------------|
Gb| |-88888888888888888888888888888888---------------------------------|
Db| |-xxxxxxxxxxxxxxxxxxxxxxxxxxxxxxxx33333333333333333333333333333333-|
Ab| |-88888888888888888888888888888888xxxxxxxxxxxxxxxxxxxxxxxxxxxxxxxx-|
Eb| |---------------------------------33333333333333333333333333333333-|

Guitar 1:
eb| |----------------------------------|----------------------------------|
Bb| |-00000000000000000000000000000000-|----------------------------------|
Gb| |-88888888888888888888888888888888-|-00000000000000000000000000000000-|
Db| |----------------------------------|-88888888888888888888888888888888-|
Ab| |----------------------------------|----------------------------------|
Eb| |----------------------------------|----------------------------------|
     more                                We won’t stand for hazy eyes any
        (We won’t stand for hazy eyes anymore)
Guitar 2:
eb| |------------------------------------------------------------------|
Bb| |------------------------------------------------------------------|
Gb| |-88888888888888888888888888888888---------------------------------|
Db| |-xxxxxxxxxxxxxxxxxxxxxxxxxxxxxxxx33333333333333333333333333333333-|
Ab| |-88888888888888888888888888888888xxxxxxxxxxxxxxxxxxxxxxxxxxxxxxxx-|
Eb| |---------------------------------33333333333333333333333333333333-|

 ___________________
| Verse (1:00-1:27) |
|___________________|

Guitar 1:
eb| |---------------------------------|---------------------------------|
Bb| |---------------------------------|---------------------------------|
Gb| |---------------------------------|---------------------------------|
Db| |-----------------1-1-1-3-3-3-3-3-|-----------------1-1-1-3-3-3-3-3-|
Ab| |-1-1-1-1-1-1-1-1-----------------|-1-1-1-1-1-1-1-1-----------------|
Eb| |---------------------------------|---------------------------------|
     more                                                               |
Guitar 2:                                                               |
eb| |---------------------------------|---------------------------------|
Bb| |-0-0-0-0-0-0-0-0-0-0-0-0-0-0-0-0-|-0-0-0-0-0-0-0-0-0-0-0-0-0-0-0-0-|
Gb| |-4-4-4-4-4-4-4-4-4-4-4-4-4-4-4-4-|-4-4-4-4-4-4-4-4-4-4-4-4-4-4-4-4-|
Db| |-x-x-x-x-x-x-x-x-x-x-x-x-x-x-x-x-|-x-x-x-x-x-x-x-x-x-x-x-x-x-x-x-x-|
Ab| |-2-2-2-2-2-2-2-2-2-2-2-2-2-2-2-2-|-2-2-2-2-2-2-2-2-2-2-2-2-2-2-2-2-|
Eb| |---------------------------------|---------------------------------|
                                                                        |
Guitar 1:                                                               |
eb| |---------------------------------|---------------------------------|
Bb| |---------------------------------|---------------------------------|
Gb| |---------------------------------|---------------------------------|
Db| |-----------------1-1-1-3-3-3-3-3-|-----------------1-1-1-3-3-3-3-3-|
Ab| |-1-1-1-1-1-1-1-1-----------------|-1-1-1-1-1-1-1-1-----------------|
Eb| |---------------------------------|---------------------------------|
         So sick, so sick of being        And oh so tired of being sick |
                                 tired                                  |
Guitar 2:                                                               |
eb| |---------------------------------|---------------------------------|
Bb| |-0-0-0-0-0-0-0-0-0-0-0-0-0-0-0-0-|-0-0-0-0-0-0-0-0-0-0-0-0-0-0-0-0-|
Gb| |-4-4-4-4-4-4-4-4-4-4-4-4-4-4-4-4-|-4-4-4-4-4-4-4-4-4-4-4-4-4-4-4-4-|
Db| |-x-x-x-x-x-x-x-x-x-x-x-x-x-x-x-x-|-x-x-x-x-x-x-x-x-x-x-x-x-x-x-x-x-|
Ab| |-2-2-2-2-2-2-2-2-2-2-2-2-2-2-2-2-|-2-2-2-2-2-2-2-2-2-2-2-2-2-2-2-2-|
Eb| |---------------------------------|---------------------------------|
                                                                        |
Guitar 1:                                                               |
eb| |---------------------------------|---------------------------------|
Bb| |---------------------------------|---------------------------------|
Gb| |---------------------------------|---------------------------------|
Db| |-----------------1-1-1-3-3-3-3-3-|-----------------1-1-1-3-3-3-3-3-|
Ab| |-1-1-1-1-1-1-1-1-----------------|-1-1-1-1-1-1-1-1-----------------|
Eb| |---------------------------------|---------------------------------|
     We’re willing and ready to prove    Of everything you said about   |
                             the worst                                  |
Guitar 2:                                                               |
eb| |---------------------------------|---------------------------------|
Bb| |-0-0-0-0-0-0-0-0-0-0-0-0-0-0-0-0-|-0-0-0-0-0-0-0-0-0-0-0-0-0-0-0-0-|
Gb| |-4-4-4-4-4-4-4-4-4-4-4-4-4-4-4-4-|-4-4-4-4-4-4-4-4-4-4-4-4-4-4-4-4-|
Db| |-x-x-x-x-x-x-x-x-x-x-x-x-x-x-x-x-|-x-x-x-x-x-x-x-x-x-x-x-x-x-x-x-x-|
Ab| |-2-2-2-2-2-2-2-2-2-2-2-2-2-2-2-2-|-2-2-2-2-2-2-2-2-2-2-2-2-2-2-2-2-|
Eb| |-0-0-0-0-0-0-0-0-0-0-0-0-0-0-0-0-|-0-0-0-0-0-0-0-0-0-0-0-0-0-0-0-0-|
                                                                        |
Guitar 1:                                                               |
eb| |---------------------------------|---------------------------------|
Bb| |---------------------------------|---------------------------------|
Gb| |---------------------------------|---------------------------------|
Db| |-----------------1-1-1-3-3-3-3-3-|-----------------1-1-1-3-3-3-3-3-|
Ab| |-1-1-1-1-1-1-1-1-----------------|-1-1-1-1-1-1-1-1-----------------|
Eb| |---------------------------------|---------------------------------|
         So obviously desperate             So desperately obvious      |
Guitar 2:                                                               |
eb| |---------------------------------|---------------------------------|
Bb| |-0-0-0-0-0-0-0-0-0-0-0-0-0-0-0-0-|-0-0-0-0-0-0-0-0-0-0-0-0-0-0-0-0-|
Gb| |-4-4-4-4-4-4-4-4-4-4-4-4-4-4-4-4-|-4-4-4-4-4-4-4-4-4-4-4-4-4-4-4-4-|
Db| |-x-x-x-x-x-x-x-x-x-x-x-x-x-x-x-x-|-x-x-x-x-x-x-x-x-x-x-x-x-x-x-x-x-|
Ab| |-2-2-2-2-2-2-2-2-2-2-2-2-2-2-2-2-|-2-2-2-2-2-2-2-2-2-2-2-2-2-2-2-2-|
Eb| |---------------------------------|---------------------------------|
                                                                        |
Guitar 1:                                                               |
eb| |---------------------------------|---------------------------------|
Bb| |---------------------------------|---------------------------------|
Gb| |---------------------------------|---------------------------------|
Db| |-----------------1-1-1-3-3-3-3-3-|-----------------1-1-1-3-3-3-3-3-|
Ab| |-1-1-1-1-1-1-1-1-----------------|-1-1-1-1-1-1-1-1-----------------|
Eb| |---------------------------------|---------------------------------|
      So good at setting bad examples   Listen trick I’ve had all I can |
Guitar 2:                                                               |
eb| |---------------------------------|---------------------------------|
Bb| |-0-0-0-0-0-0-0-0-0-0-0-0-0-0-0-0-|-0-0-0-0-0-0-0-0-0-0-0-0-0-0-0-0-|
Gb| |-4-4-4-4-4-4-4-4-4-4-4-4-4-4-4-4-|-4-4-4-4-4-4-4-4-4-4-4-4-4-4-4-4-|
Db| |-x-x-x-x-x-x-x-x-x-x-x-x-x-x-x-x-|-x-x-x-x-x-x-x-x-x-x-x-x-x-x-x-x-|
Ab| |-2-2-2-2-2-2-2-2-2-2-2-2-2-2-2-2-|-2-2-2-2-2-2-2-2-2-2-2-2-2-2-2-2-|
Eb| |-0-0-0-0-0-0-0-0-0-0-0-0-0-0-0-0-|-0-0-0-0-0-0-0-0-0-0-0-0-0-0-0-0-|

 ____________________
| Chorus (1:28-1:49) |
|____________________|

Guitar 1:
eb| |----------------------------------|----------------------------------|
Bb| |-00000000000000000000000000000000-|----------------------------------|
Gb| |-88888888888888888888888888888888-|-00000000000000000000000000000000-|
Db| |----------------------------------|-88888888888888888888888888888888-|
Ab| |----------------------------------|----------------------------------|
Eb| |----------------------------------|----------------------------------|
     handle”                             We won’t stand for hazy eyes any
       (We won’t stand for hazy eyes anymore)
Guitar 2:
eb| |------------------------------------------------------------------|
Bb| |------------------------------------------------------------------|
Gb| |-88888888888888888888888888888888---------------------------------|
Db| |-xxxxxxxxxxxxxxxxxxxxxxxxxxxxxxxx33333333333333333333333333333333-|
Ab| |-88888888888888888888888888888888xxxxxxxxxxxxxxxxxxxxxxxxxxxxxxxx-|
Eb| |---------------------------------33333333333333333333333333333333-|

Guitar 1:
eb| |----------------------------------|----------------------------------|
Bb| |-00000000000000000000000000000000-|----------------------------------|
Gb| |-88888888888888888888888888888888-|-00000000000000000000000000000000-|
Db| |----------------------------------|-88888888888888888888888888888888-|
Ab| |----------------------------------|----------------------------------|
Eb| |----------------------------------|----------------------------------|
     more                                We won’t stand for hazy eyes any
        (We won’t stand for hazy eyes anymore)
Guitar 2:
eb| |------------------------------------------------------------------|
Bb| |------------------------------------------------------------------|
Gb| |-88888888888888888888888888888888---------------------------------|
Db| |-xxxxxxxxxxxxxxxxxxxxxxxxxxxxxxxx33333333333333333333333333333333-|
Ab| |-88888888888888888888888888888888xxxxxxxxxxxxxxxxxxxxxxxxxxxxxxxx-|
Eb| |---------------------------------33333333333333333333333333333333-|

 _______________________
| Interlude (1:50-2:28) |
|_______________________|

Guitar 1&2
eb| |--------------------------------------------|
Bb| |--------------------------------------------|
Gb| |-5--5---5--5---5-5---3--3---3--3---3-5--0~--|
Db| |-5--5---5--5---5-4---0--0---0--0---1-5--0~--|
Ab| |-3--3---3--3---3-2---0--0---0--0---0-3--0~--|
Eb| |--------------------------------------------|
     more                                        |

I don’t have a bass guitar so I didn’t know how to do the bass riff, but I did 
the piano riff below.

Guitar 1:
eb| |------------------------------------------------------------------------------|
Bb| |---------12--11--12----------12--11--12---------------------------------------|
Gb| |-11---11-------------11---11--------------11---11--13--12--11--9---8--9--8--7-|
Db| |------------------------------------------------------------------------------|
Ab| |------------------------------------------------------------------------------|
Eb| |------------------------------------------------------------------------------|
    Think of all the fun you had, the finest line divides a night well spent       |
    (We won’t stand for hazy eyes anymore, we won’t stand for) from a waste of time|
Guitar 1:                                                                          |
eb| |------------------------------------------------------------------------------|
Bb| |---------12--11--12----------12--11--12---------------------------------------|
Gb| |-11---11-------------11---11--------------11---11--13--12--11--9---8--9--8--7-|
Db| |------------------------------------------------------------------------------|
Ab| |------------------------------------------------------------------------------|
Eb| |------------------------------------------------------------------------------|
     And think of all the days you spent alone with just your T.V set and I        |
     (We won’t stand for hazy eyes anymore, we won’t stand for) I can barely smile |
Guitar 2:                                                                          |
eb| |------------------------------------------------------------------------------|
Bb| |------------------------------------------------------------------------------|
Gb| |---------------------------------------------------------------2222-2222-2222-|
Db| |---------------------------------------------------------------2222-2222-2222-|
Ab| |---------------------------------------------------------------2222-2222-2222-|
Eb| |------------------------------------------------------------------------------|
                                                                   (**************)
 ____________________
| Bridge (2:29-2:50) |
|____________________|

Guitar 1:
eb| |------------------------------------------------------------------------------|
Bb| |---------12--11--12----------12--11--12---------------------------------------|
Gb| |-11---11-------------11---11--------------11---11--13--12--11--9---8--9--8--7-|
Db| |------------------------------------------------------------------------------|
Ab| |------------------------------------------------------------------------------|
Eb| |------------------------------------------------------------------------------|
    Think of all the fun you had, the finest line divides a night well spent       |
    (We won’t stand for hazy eyes anymore, we won’t stand for) from a waste of time|
Guitar 2:                                                                          |
eb| |------------------------------------------------------------------------------|
Bb| |------------------------------------------------------------------------------|
Gb| |-----------------------2222-2222-2222-2222------------------------------------|
Db| |--2222-2222-2222-2222--2222-2222-2222-2222--6666-6666--4444-4444--2222-2222---|
Ab| |--2222-2222-2222-2222--2222-2222-2222-2222--6666-6666--4444-4444--2222-2222---|
Eb| |--2222-2222-2222-2222-----------------------6666-6666--4444-4444--2222-2222---|
                                                                                   |
Guitar 1:                                                                          |
eb| |------------------------------------------------------------------------------|
Bb| |---------12--11--12----------12--11--12---------------------------------------|
Gb| |-11---11-------------11---11--------------11---11--13--12--11--9---8--9--8--7-|
Db| |------------------------------------------------------------------------------|
Ab| |------------------------------------------------------------------------------|
Eb| |------------------------------------------------------------------------------|
     And think of all the days you spent alone with just your T.V set and I        |
     (We won’t stand for hazy eyes anymore, we won’t stand for) I can barely smile |
Guitar 2:                                                                          |
eb| |------------------------------------------------------------------------------|
Bb| |------------------------------------------------------------------------------|
Gb| |-----------------------2222-2222-2222-2222------------------------------------|
Db| |--2222-2222-2222-2222--2222-2222-2222-2222--6666-6666--4444-4444--2222-2222---|
Ab| |--2222-2222-2222-2222--2222-2222-2222-2222--6666-6666--4444-4444--2222-2222---|
Eb| |--2222-2222-2222-2222-----------------------6666-6666--4444-4444--2222-2222---|

 ___________________
| Outro (2:51-3:20) |
|___________________|

Guitar 1&2:                                                                        |
eb| |------------------------------------------------------------------------------|
Bb| |------------------------------------------------------------------------------|
Gb| |-----------------------2222-2222-2222-2222------------------------------------|
Db| |--2222-2222-2222-2222--2222-2222-2222-2222--6666-6666--4444-4444--2222-2222---|
Ab| |--2222-2222-2222-2222--2222-2222-2222-2222--6666-6666--4444-4444--2222-2222---|
Eb| |--2222-2222-2222-2222-----------------------6666-6666--4444-4444--2222-2222---|
 (Let’s go) He’s smoked out in the back of the van (hazy eyes anymore)             |
 (We won’t stand for) Says he’s held up from waiting on and on and on and on and on|
Guitar 1&2:                                                                        |
eb| |------------------------------------------------------------------------------|
Bb| |------------------------------------------------------------------------------|
Gb| |-----------------------2222-2222-2222-2222--2-4------6---5/7---2~-------------|
Db| |--2222-2222-2222-2222--2222-2222-2222-2222--0-4------6---3/5---0~-------------|
Ab| |--2222-2222-2222-2222--2222-2222-2222-2222--0-2------6---3/5---0~-------------|
Eb| |--2222-2222-2222-2222---------------------------------------------------------|
  He’s smoked out in the back of the van (hazy eyes anymore)
 (We won’t stand for) Says he’s held up from waiting on and on and on and on and on

That’s it!  Enjoy playing.

            
            
Suggest correction
Creating personal tab
Creating personal tab
You can edit any tab online and save it as your Personal.

You can edit, replace or remove any tab part or add personal notes – all changes will be seen only by you.

Personal tabs can be accessed anytime from any device, even offline.
Learn more »
Give kudos to tab author, rate the tab!
1 2 3 4 5
comments
print report bad tab
guest
You may want to rate the tab now too:
select rating
Wanna post a correction for this tab? Suggest correction