Oops, an error
Loading. Please wait.

Shes So High bass

version 1
version 1

Whole song

Interactive

1,668 views 63 this week
no commentswrite comment
1 2 3 4 5
1 last vote to show rating
add to favorites
×
Save as Personal and add changes to this tab that will be seen only by you. Learn more ›
×
You can save this tab as Personal to edit and correct it or add notes. All changes will be seen only by you. Learn more »
launch autoscroll
font size
0
reset
guitar tuner
edit
Autoscroll
slow
fast
+/-
esc
set tempo
stop
Author
Difficulty
Title: She's so high
Artist: Tal Bachman
Tabber: Raphael Schmidtkord
Tempo = 125
Bass Tab

Legend
L - tied note
x - dead note
h - hammer on/pull off
b - bend
s - slide
~ - vibrato
g - ghost note
> - accentuated note
t - trill
M - palm mute
. - staccato
P - popping (bass)
S - slapping (bass)
+ - tapping
W - wide vibrato
< - fade in
w - whammy bar
= - tremolo picking
v - brush up
^ - brush down
V - pick stroke up
n - pick stroke down


Intro (4 measures)
G |----|----|----|----|
D |----|----|----|----|
A |----|----|----|----|
E |----|----|----|----|


Verse 1 (8 measures)
----|----|----|----|----|----|----|----|
----|----|----|----|----|----|----|----|
----|----|----|----|----|----|----|----|
----|----|----|----|----|----|----|----|


Verse/Prechorus (9 measures)
----|----|----|----|
----|----|----|----|
----|----|----|----|
----|----|----|----|


--------9-------------------|----------------------------|----------------------------|
-----9-----7-----6s---------|--0-------------------------|----------------------------|
--7-------------------------|----------------------------|--4--4--4--4--4--4--4--5----|
----------------------------|----------------------------|----------------------------|


----------------------------|----------------------------|
----------------------------|----------------------------|
--7--7--7--7--7--7--7--7----|--7--7--7--7--7--7--7--7----|
----------------------------|----------------------------|


Chorus (16 measures)
----------------------------|----------------------------|
----------------------------|----------------------------|
--------------------4--5----|--5-----5-----5--5--5--5----|
--7-----7-----7--7----------|----------------------------|


----------------------------|----------------------------|
----------------------------|----------------------------|
----------------------------|-----7--7--7--7--7--7--7----|
--5-----5-----5--5--5--0L---|--0-------------------------|


----------------------------|----------------------------|
----------------------------|----------------------------|
--------------------4--5----|--5-----5-----5--5--5--4----|
--7-----7-----7--7----------|----------------------------|


----------------------------|----------------------------|
----------------------------|----------------------------|
----------------------------|-----7--7--7--7--7--7--7----|
--5-----5-----5--5--5--0L---|--0-------------------------|


----------------------------|----------------------------|
----------------------------|----------------------------|
--------------------4--5----|--5-----5-----5--5--5--4----|
--7-----7-----7--7----------|----------------------------|


----------------------------|----------------------------|
----------------------------|----------------------------|
----------------------------|-----7--7--7--7--7--7--7----|
--5-----5-----5--5--5--0L---|--0-------------------------|


----------------------------|----------------------------|
----------------------------|----------------------------|
--------------------4--5----|--5.-5----------------------|
--7-----7-----7--7----------|----------------------------|


----------------------------|----------------------------|
----------------------------|----------------------------|
----------------------------|----------------------------|
----------------------------|----------------------------|
----------------------------|----------------------------|


Verse 2 (8 measures)
----------------------------|----------------------------|
--7--7-----7--4--4-----4----|----------------------------|
----------------------------|--7--7-----5-----5--5--5----|
----------------------------|----------------------------|


----------------------------|--------------------11-9----|
--7--7-----7--4--4-----4----|-----------------12---------|
----------------------------|--7--7-----5----------------|
----------------------------|----------------------------|


----------------------------|----------------------------|
--7--7-----7--4--4-----4----|----------------------------|
----------------------------|--7--7-----5-----5--5--5----|
----------------------------|----------------------------|


----------------------------|----------------------------|
--7--7-----7--4--4-----4----|----------------------------|
----------------------------|--7--7-----5-----5--5--5----|
----------------------------|----------------------------|


Verse/Prechorus (9 measures)
----------------------------|----------------------------|
-----------7-----6s---------|--0--0--0--7--12-12-7-------|
--7-----7-------------------|-----------------------5----|
-----7----------------------|----------------------------|


----------------------------|----------------------------|
----------------------------|----------------------------|
----------------------------|-----------5-----5--5--5----|
--5--5-----5--2--2-----2----|--0--0----------------------|


--------9-------------------|--------------------9--7----|
-----9-----7-----6s---------|--0--0--0--0--0--7----------|
--7-------------------------|----------------------------|
----------------------------|----------------------------|


--6--6--6--6--6--6--6--6----|----------------------------|
----------------------------|----------------------------|
----------------------------|--7--7--7--7--7--7--7--7----|
----------------------------|----------------------------|


----------------------------|
----------------------------|
--7--7--7--7--7--7--7--7----|
----------------------------|


Chorus (14 measures)
----------------------------|----------------------------|
----------------------------|----------------------------|
--------------------4--5----|--5-----5-----5--5--5--5----|
--7-----7-----7--7----------|----------------------------|


----------------------------|----------------------------|
----------------------------|----------------------------|
----------------------------|-----7--7--7--7--7--7--7----|
--5-----5-----5--5--5--0L---|--0-------------------------|


----------------------------|----------------------------|
----------------------------|----------------------------|
--------------------4--5----|--5-----5-----5--5--5--5----|
--7-----7-----7--7----------|----------------------------|


----------------------------|----------------------------|
----------------------------|----------------------------|
----------------------------|-----7--7--7--7--7--7--7----|
--5-----5-----5--5--5--0L---|--0-------------------------|


----------------------------|----------------------------|
----------------------------|----------------------------|
--------------------4--5----|--5-----5-----5--5--5--5----|
--7-----7-----7--7----------|----------------------------|


----------------------------|----------------------------|
----------------------------|----------------------------|
----------------------------|-----7--7--7--7--7--7--7----|
--5-----5-----5--5--5--0L---|--0-------------------------|


----------------------------|----------------------------|
----------------------------|----------------------------|
--------------------4--5----|--5.-5----------------------|
--7-----7-----7--7----------|----------------------------|


Guitar Solo (10 measures)
----------------------------|----------------------------|
----------------------------|----------------------------|
--------------5--4--0-------|--------2--2--3--3--4--5----|
--5--------------------3L---|--3-------------------------|


----------------------------|----------------------------|
----------------------------|----------------------------|
--5--5--5--5--5--5--5--5----|--5--5--5--5--5--5--5--5----|
----------------------------|----------------------------|


----------------------------|----------------------------|
----------------------------|----------------------------|
--------------5--4--0-------|--------2--2--3--3--4--5----|
--5--5--5--5-----------3L---|--3-------------------------|


----------------------------|
--------------4-------------|
--5--5--5--5-----5--5--5----|
----------------------------|


----------------------------------------------------|-------|----|
--------------16----------16h17-16------------------|-------|----|
--------17----------17----------------17----19------|-------|----|
----------------------------------------------------|--17---|----|


Verse 3 (8 measures)
----|----|----|----|----|----|----|----|
----|----|----|----|----|----|----|----|
----|----|----|----|----|----|----|----|
----|----|----|----|----|----|----|----|


Verse/Prechorus (9 measures)
----|----|----|----|
----|----|----|----|
----|----|----|----|
----|----|----|----|



--------9-------------------|----------------------------|
-----9-----7-----6s---------|--0-------------------------|
--7-------------------------|----------------------------|
----------------------------|----------------------------|


----------------------------|----------------------------|
----------------------------|----------------------------|
--4--4--4--4--4--4--4--4----|--7--7--7--7--7--7--7--7----|
----------------------------|----------------------------|


----------------------------|
----------------------------|
--7--7--7--7--7--7--7--7----|
----------------------------|


Chorus (14 measures)
----------------------------|----------------------------|
----------------------------|----------------------------|
--------------------4--5----|--5-----5-----5--5--5--5----|
--7-----7-----7--7----------|----------------------------|


----------------------------|----------------------------|
----------------------------|----------------------------|
----------------------------|-----7--7--7--7--7--7--7----|
--5-----5-----5--5--5--0L---|--0-------------------------|


----------------------------|----------------------------|
----------------------------|----------------------------|
--------------------4--5----|--5-----5-----5--5--5--5----|
--7-----7-----7--7----------|----------------------------|


----------------------------|----------------------------|
----------------------------|----------------------------|
----------------------------|-----7--7--7--7--7--7--7----|
--5-----5-----5--5--5--0L---|--0-------------------------|


----------------------------|----------------------------|
----------------------------|----------------------------|
--------------------4--5----|--5-----5-----5--5--5--5----|
--7-----7-----7--7----------|----------------------------|


----------------------------|----------------------------|
----------------------------|----------------------------|
----------------------------|-----7--7--7--7--7--7--7----|
--5-----5-----5--5--5--0L---|--0-------------------------|


----------------------------|----------------------------|
----------------------------|----------------------------|
--------------------4--5----|--5.-5----------------------|
--7-----7-----7--7----------|----------------------------|


Outro (3 measures)
----------------------------|----------------------------|
----------------------------|-----------------------4s---|
----------------------------|----------------------------|
----------------------------|----------------------------|


---------------------------||
--7------------------------||
---------------------------||
---------------------------||



There wasn't any correct bass tab, so I made one.
My first shared Bass tab, so please rate/comment if you like it.
If you want the Guitar Pro file email me at schraphael@yahoo.de

Enjoy it :)

            
            
Suggest correction
Creating personal tab
Creating personal tab
You can edit any tab online and save it as your Personal.

You can edit, replace or remove any tab part or add personal notes – all changes will be seen only by you.

Personal tabs can be accessed anytime from any device, even offline.
Learn more »
Give kudos to tab author, rate the tab!
1 2 3 4 5
comments
print report bad tab
guest
You may want to rate the tab now too:
select rating
Wanna post a correction for this tab? Suggest correction