Oops, an error
Loading. Please wait.
We have an official Its My Life tab made by UG professional guitarists. Check out the tab »
×
583 views 9 this week
no commentswrite comment
1 2 3 4 5
1 last vote to show rating
add to favorites
×
Save as Personal and add changes to this tab that will be seen only by you. Learn more ›
×
You can save this tab as Personal to edit and correct it or add notes. All changes will be seen only by you. Learn more »
launch autoscroll
font size
0
reset
guitar tuner
edit
Autoscroll
slow
fast
+/-
esc
set tempo
stop
Author
Difficulty
-------------------------------------------------------------------------------
                             It's My Life - Talk Talk
-------------------------------------------------------------------------------
Tabbed by: RonnieDeRakker

Tuning: EADG

VERSE
G|------------------------------------------|
D|----------------------------6---6---6---8-| x 5
A|--6-4-6-----6-4-6-8---8-6-8-------8---8---| 
E|--------6---------------------------------|

G|---------------------------------------------------|
D|----------------------------6---6---6---6-2--0-2-2-|
A|--6-4-6-----6-4-6-8---8-6-8-------8---8------------| 
E|--------6------------------------------------------|

Funny how I find myself in love with you
If I could buy my reasoning, I'd pay to lose
One half won't do

G|----------------------2--0------------------------------------------------|
D|-2-0--------------0-2------2-----------0--------0-3--0--------0-3-----0-3-|
A|-----2-----0-2--0---------------0-2-3----3----3--------3----3-----0-3-----|
E|-------0-3-------------------3-------------1-------------1----------------|

I've asked myself, how much do you...

G|-------2--0-------------------------------------------------|
D|---0-2------2-----------0--------0-3--0--------0-3---0------|
A|-0---------------0-2-3----3----3--------3----3-----0---3-0--|
E|--------------3-------------1-------------1-----------------|

...commit yourself?


CHORUS
G|--------------------------|
D|--------------------------|
A|-3-5-3-5-5----0-3-0-3-3-0-| 3x
E|-----------3--------------|

G|----------------------------|
D|----------------------------|
A|-3-5-3-5-5----0-3-0-3-3-----|
E|-----------3------------1---|

It's my life, don't you forget
It's my life, it never ends (It never ends)


VERSE
G|------------------------------------------|
D|----------------------------6---6---6---8-| x 3
A|--6-4-6-----6-4-6-8---8-6-8-------8---8---| 
E|--------6---------------------------------|

G|---------------------------------------------------|
D|----------------------------6---6---6---6-2--0-2-2-|
A|--6-4-6-----6-4-6-8---8-6-8-------8---8------------| 
E|--------6------------------------------------------|

Funny how I blind myself, I never knew
If I was sometimes played upon, afraid to lose

G|----------------------2--0------------------------------------------------|
D|-2-0--------------0-2------2-----------0--------0-3--0--------0-3-----0-3-|
A|-----2-----0-2--0---------------0-2-3----3----3--------3----3-----0-3-----|
E|-------0-3-------------------3-------------1-------------1----------------|

I'd tell myself, what good you do...

G|-------2--0-------------------------------------------------|
D|---0-2------2-----------0--------0-3--0--------0-3---0------|
A|-0---------------0-2-3----3----3--------3----3-----0---3-0--|
E|--------------3-------------1-------------1-----------------|

Convince myself


CHORUS
G|--------------------------|
D|--------------------------|
A|-3-5-3-5-5----0-3-0-3-3-0-| 3x
E|-----------3--------------|

G|---------------------------|
D|---------------------------|
A|-3-5-3-5-5----0-3-0-3-3----|
E|-----------3------------6--|

It's my life, don't you forget
It's my life, it never ends (It never ends)


BRIDGE
G|-------------------------------------------------------------------------------|
D|------------------3---------------------------------------3--------------------|
A|-------------------------------------------------------------------------------|
E|-6-4-6--1--6-4-6----1-4-6--1--1-4-6--4-6-6-4-6--1--6-4-6----1-4-6--1--1-4-6--4-|

G|-------------------------------|
D|--------------------3----------|
A|-------------------------------|
E|-6-6-4-6--1--6-4-6----1-4-6--4-|


G|----------------------2--0------------------------------------------------|
D|-2-0--------------0-2------2-----------0--------0-3--0--------0-3-----0-3-|
A|-----2-----0-2--0---------------0-2-3----3----3--------3----3-----0-3-----|
E|-------0-3-------------------3-------------1-------------1----------------|

I've asked myself, how much do you...

G|-------2--0-------------------------------------------------|
D|---0-2------2-----------0--------0-3--0--------0-3---0------|
A|-0---------------0-2-3----3----3--------3----3-----0---3-0--|
E|--------------3-------------1-------------1-----------------|

...commit yourself?


CHORUS
G|--------------------------|
D|--------------------------|
A|-3-5-3-5-5----0-3-0-3-3-0-| Repeat until end
E|-----------3--------------|

It's my life, don't you forget
Caught in the crowd, it never ends
It's my life, don't you forget
Caught in the crowd, it never ends
It's my life, don't you forget
Caught in the crowd, it never ends



| /  slide up
| \  slide down
| h  hammer-on
| p  pull-off
| ~  vibrato
| +  harmonic
| x  Mute note
===============================================================================

            
            
Suggest correction
Creating personal tab
Creating personal tab
You can edit any tab online and save it as your Personal.

You can edit, replace or remove any tab part or add personal notes – all changes will be seen only by you.

Personal tabs can be accessed anytime from any device, even offline.
Learn more »
Give kudos to tab author, rate the tab!
1 2 3 4 5
comments
print report bad tab
guest
You may want to rate the tab now too:
select rating
Wanna post a correction for this tab? Suggest correction