Oops, an error
Loading. Please wait.

Jeremys Storm tab

version 4
version 4

Whole song

Interactive

29,343 views 117 this week
1 commentread comment
1 2 3 4 5
x 30
add to favorites
×
Save as Personal and add changes to this tab that will be seen only by you. Learn more ›
×
You can save this tab as Personal to edit and correct it or add notes. All changes will be seen only by you. Learn more »
launch autoscroll
font size
0
reset
how to read this tab
guitar tuner
edit
Autoscroll
slow
fast
+/-
esc
set tempo
stop
                       Tame Impala - Jeremy's Storm
                    from their 2010 album Innerspeaker

This song is played in D standard tuning. If you want to sound like the recorded
version then you must tune down, otherwise it will be two semitones wrong. Because
this song uses a lot of open notes and finger picking, there's no way of transposing
this song to E standard, so either tune down or play it in a different key.

Intro/finger-picking section:
Guitar 1:
d|-7-------------------5-----7-------------------5--|
A|-------5----------5--------------5----------5-----|
F|-------------5h7-----------------------5h7--------|
C|----5-----5-------------------5-----5-------------|
G|-0----------------------0--0----------------------|
D|--------------------------------------------------|

d|-4-------------------2-----4-------------------2--|
A|-------2----------2--------------2----------2-----|
F|-------------2h4-----------------------2h4--------|
C|----2-----2-------------------2-----2-------------|
G|-0----------------------0--0----------------------|
D|--------------------------------------------------|

d|-0-----------------------1--------------------|
A|-------1-----------------------1--------------|
F|-------------2-----------------------2--------|
C|----3-----3--------3--------3-----3--------3--|
G|-3--------------3-----3--3--------------3-----|
D|----------------------------------------------|

d|-1---------------------------------------6--|
A|-------1-----3---------------------6--------|
F|-------------------3---------8--------8-----|
C|----3-----------3------6--------6-----------|
G|-1--------1---------------8-----------------|
D|-----------------------6--------------------|

Guitar 1 and 2:
Second guitar comes in:
d|-7-------------------5-----7-------------------5--| \
A|-------5----------5--------------5----------5-----|  \
F|-------------5h7-----------------------5h7--------|   \
C|----5-----5-------------------5-----5-------------|    \
G|-0----------------------0--0----------------------|     \
D|--------------------------------------------------|      \
                                                            |
d|-4-------------------2-----4-------------------2--|       |
A|-------2----------2--------------2----------2-----|       |
F|-------------2h4-----------------------2h4--------|       |
C|----2-----2-------------------2-----2-------------|       |
G|-0----------------------0--0----------------------|       |
D|--------------------------------------------------|       |
                                                            | x3
d|-0-----------------------1--------------------|           |
A|-------1-----------------------1--------------|           |
F|-------------2-----------------------2--------|           |
C|----3-----3--------3--------3-----3--------3--|           |
G|-3--------------3-----3--3--------------3-----|           |
D|----------------------------------------------|           |
                                                            |
d|-1---------------------------------------6--|            /
A|-------1-----3---------------------6--------|           /
F|-------------------3---------8--------8-----|          /
C|----3-----------3------6--------6-----------|         /
G|-1--------1---------------8-----------------|        /
D|-----------------------6--------------------|       /

Guitar 1 and 2:
d|-7-------------------5-----7-------------------5--|
A|-------5----------5--------------5----------5-----|
F|-------------5h7-----------------------5h7--------|
C|----5-----5-------------------5-----5-------------|
G|-0----------------------0--0----------------------|
D|--------------------------------------------------|

d|-4-------------------2-----4-------------------2--|
A|-------2----------2--------------2----------2-----|
F|-------------2h4-----------------------2h4--------|
C|----2-----2-------------------2-----2-------------|
G|-0----------------------0--0----------------------|
D|--------------------------------------------------|

Arpeggio rundown:
Guitar 1:
d|-0---------------------------------------------| \
A|-------1------------------------------------4--|  \
F|-------------2------------------------2--------|   \
C|-------------------3-----2-----3---------------|    |
G|-3--3-----3-----3-----3-----3------3-----3-----|    |
D|-----------------------------------------------|    |
                                                      | x2
d|-0---------------------------------------------|    |
A|-------0------------------------------------4--|    |
F|-------------1------------------------1--------|    |
C|-------------------2-----1-----2---------------|   /
G|-2--2-----2-----2-----2-----2------2-----2-----|  /
D|-----------------------------------------------| /

A second guitar comes in quietly in the background:
Guitar 1:
d|-0---------------------------------------------|
A|-------1------------------------------------4--|
F|-------------2------------------------2--------|
C|-------------------3-----2-----3---------------|
G|-3--3-----3-----3-----3-----3------3-----3-----|
D|-----------------------------------------------|

d|-0---------------------------------------------|
A|-------0------------------------------------4--|
F|-------------1------------------------1--------|
C|-------------------2-----1-----2---------------|
G|-2--2-----2-----2-----2-----2------2-----2-----|
D|-----------------------------------------------|

d|-0---------------------------------------------|
A|-------1------------------------------------4--|
F|-------------2------------------------2--------|
C|-------------------3-----2-----3---------------|
G|-3--3-----3-----3-----3-----3------3-----3-----|
D|-----------------------------------------------|

d|-0-------------------------|
A|-------0-------------------|
F|-------------1-------------|
C|-------------------2-------|
G|-2--2-----2-----2----------|
D|----------------------0----|

Guitar 2 (with fuzz):
d|------------------------------|---------------------------|
A|-4--5/1--1-----------------4--|-5/0--0-----------------4--|
F|------------2-----------2-----|---------1-----------1-----|
C|---------------3--2--3--------|------------2--1--2--------|
G|------------------------------|---------------------------|
D|------------------------------|---------------------------|

d|------------------------------|--------------------|
A|-4--5/1--1-----------------4--|-5/0--0-------------|
F|------------2-----------2-----|---------1----------|
C|---------------3--2--3--------|------------2-------|
G|------------------------------|--------------------|
D|------------------------------|---------------0----|

First rhythm and lead section:
Guitar 1:
d|------------------|
A|------------------|
F|------------------| x8
C|------------------|
G|----7------7------|
D|-0----0-0----0-0--|

Guitar 2:
d|---------------7--|---------------7--|------------------|---------------7--|
A|-------------7----|-------------7----|---------------7--|-------------7----|
F|------------------|------------------|-------------7----|------------------| x2
C|------------------|------------------|------------------|------------------|
G|------------------|------------------|------------------|------------------|
D|------------------|------------------|------------------|------------------|

Guitar 2 makes crazy sound effects in this section, which are mostly untabbable.
Guitar 1:
d|------------------|
A|------------------|
F|------------------| x8
C|------------------|
G|----7------7------|
D|-0----0-0----0-0--|

Guitar 1:
d|-----------------------|
A|-----------------------|
F|-----------------------| x4
C|---------------5/7--5--|
G|----7------7---7/9--7--|
D|-0----0-0----0---------|

Guitar 2 (with fuzz):
d|-----------------------|
A|-----------------------|
F|-----------------------| x4
C|-----------------------|
G|---------------7/9--7--|
D|-----------------------|

Guitar 1:
d|--------------------|
A|--------------------|
F|--------------------| x2
C|---------------5-4--|
G|----7------7---7-6--|
D|-0----0-0----0------|

Guitar 1:
d|------------------------------------------|
A|------------------------------------------|
F|------------------------------------------| x2
C|---------------5/7--5----------------5-4--|
G|----7------7---7/9--7-----7------7---7-6--|
D|-0----0-0----0---------0----0-0----0------|

Guitar 1:
d|------------------|
A|------------------|
F|------------------| x2
C|------------------|
G|----7------7------|
D|-0----0-0----0-0--|

Mini-guitar solo:
Guitar 1:
Quietly in the background:
d|------------------|
A|------------------|
F|------------------| x4
C|------------------|
G|----7------7------|
D|-0----0-0----0-0--|

Guitar 2:
d|---------------7--|---------------7--|------------------|---------------7--|
A|-------------7----|-------------7----|---------------7--|-------------7----|
F|------------------|------------------|-------------7----|------------------|
C|------------------|------------------|------------------|------------------|
G|------------------|------------------|------------------|------------------|
D|------------------|------------------|------------------|------------------|

Guitar 1:
Quietly in the background:
d|------------------|
A|------------------|
F|------------------| x8
C|------------------|
G|----7------7------|
D|-0----0-0----0-0--|

Guitar 2:
d|---------------7--|---------------7--|------------------|---------------7--|
A|-------------7----|-------------7----|---------------7--|-------------7----|
F|------------------|------------------|-------------7----|------------------| x2
C|------------------|------------------|------------------|------------------|
G|------------------|------------------|------------------|------------------|
D|------------------|------------------|------------------|------------------|

Guitar 3:
d|---------14p12----|------------------|-14p12------------|------------------|
A|------------------|------------------|--------14\12-----|---14b15r14-12----|
F|------------------|------------------|------------------|------------------|
C|------------------|------------------|------------------|------------------|
G|------------------|------------------|------------------|------------------|
D|------------------|------------------|------------------|------------------|

d|------------------|------------------|------------------|------------------|
A|------------------|------------------|------------------|------------------|
F|------------------|------------------|------------------|------------------|
C|------------------|-----14\12~~~~~~~~|~~~~~~~~~~~~~~~~~~|-11---------------|
G|------------------|------------------|------------------|-----12/14~~~~~~~-|
D|------------------|------------------|------------------|------------------|

Finger-picking section:
Guitar 1 and 2:
d|-7-------------------5-----7-------------------5--| \
A|-------5----------5--------------5----------5-----|  \
F|-------------5h7-----------------------5h7--------|   \
C|----5-----5-------------------5-----5-------------|    \
G|-0----------------------0--0----------------------|     \
D|--------------------------------------------------|      \
                                                            |
d|-4-------------------2-----4-------------------2--|       |
A|-------2----------2--------------2----------2-----|       |
F|-------------2h4-----------------------2h4--------|       |
C|----2-----2-------------------2-----2-------------|       |
G|-0----------------------0--0----------------------|       |
D|--------------------------------------------------|       |
                                                            | x2
d|-0-----------------------1--------------------|           |
A|-------1-----------------------1--------------|           |
F|-------------2-----------------------2--------|           |
C|----3-----3--------3--------3-----3--------3--|           |
G|-3--------------3-----3--3--------------3-----|           |
D|----------------------------------------------|           |
                                                            |
d|-1---------------------------------------6--|            /
A|-------1-----3---------------------6--------|           /
F|-------------------3---------8--------8-----|          /
C|----3-----------3------6--------6-----------|         /
G|-1--------1---------------8-----------------|        /
D|-----------------------6--------------------|       /

Guitar 1 and 2:
d|-7-------------------5-----7-------------------5--|
A|-------5----------5--------------5----------5-----|
F|-------------5h7-----------------------5h7--------|
C|----5-----5-------------------5-----5-------------|
G|-0----------------------0--0----------------------|
D|--------------------------------------------------|

d|-4-------------------2-----4-------------------2--|
A|-------2----------2--------------2----------2-----|
F|-------------2h4-----------------------2h4--------|
C|----2-----2-------------------2-----2-------------|
G|-0----------------------0--0----------------------|
D|--------------------------------------------------|

Arpeggio rundown:
Guitar 1:
d|-0---------------------------------------------|
A|-------1------------------------------------4--|
F|-------------2------------------------2--------|
C|-------------------3-----2-----3---------------|
G|-3--3-----3-----3-----3-----3------3-----3-----|
D|-----------------------------------------------|

d|-0---------------------------------------------|
A|-------0------------------------------------4--|
F|-------------1------------------------1--------|
C|-------------------2-----1-----2---------------|
G|-2--2-----2-----2-----2-----2------2-----2-----|
D|-----------------------------------------------|

d|-0---------------------------------------------|
A|-------1------------------------------------4--|
F|-------------2------------------------2--------|
C|-------------------3-----2-----3---------------|
G|-3--3-----3-----3-----3-----3------3-----3-----|
D|-----------------------------------------------|

d|-0------------------------------------------|
A|-------0--------------3---------------------|
F|-------------1--------------1------------1--|
C|-------------------2--------------2---------|
G|-2--2-----2-----2-----2--2-----2------2-----|
D|--------------------------------------------|

Guitar 2 (clean):
d|-0-----------------------|-0-----------------------|
A|----1-----------------4--|----0-----------------4--|
F|-------2-----------2-----|-------1-----------1-----|
C|----------3--2--3--------|----------2--1--2--------|
G|-------------------------|-------------------------|
D|-------------------------|-------------------------|

d|-0-----------------------|-0-----------------------|
A|----1-----------------4--|----0--------3-----------|
F|-------2-----------2-----|-------1--------1-----1--|
C|----------3--2--3--------|----------2--------2-----|
G|-------------------------|-------------------------|
D|-------------------------|-------------------------|

Guitar 1:
d|-0---------------------------------------------|
A|-------1------------------------------------4--|
F|-------------2------------------------2--------|
C|-------------------3-----2-----3---------------|
G|-3--3-----3-----3-----3-----3------3-----3-----|
D|-----------------------------------------------|

d|-0---------------------------------------------|
A|-------0------------------------------------4--|
F|-------------1------------------------1--------|
C|-------------------2-----1-----2---------------|
G|-2--2-----2-----2-----2-----2------2-----2-----|
D|-----------------------------------------------|

d|-0---------------------------------------------|
A|-------1------------------------------------4--|
F|-------------2------------------------2--------|
C|-------------------3-----2-----3---------------|
G|-3--3-----3-----3-----3-----3------3-----3-----|
D|-----------------------------------------------|

d|-0-------------------------|
A|-------0-------------------|
F|-------------1-------------|
C|-------------------2-------|
G|-2--2-----2-----2----------|
D|----------------------0----|

Guitar 2 (with fuzz):
d|------------------------------|---------------------------|
A|-4--5/1--1-----------------4--|-5/0--0-----------------4--|
F|------------2-----------2-----|---------1-----------1-----|
C|---------------3--2--3--------|------------2--1--2--------|
G|------------------------------|---------------------------|
D|------------------------------|---------------------------|

d|------------------------------|---------------------------|
A|-4--5/1--1-----------------4--|-5/0--0--------------------|
F|------------2-----------2-----|---------1-----------1-----|
C|---------------3--2--3--------|------------2--1--2--------|
G|------------------------------|---------------------------|
D|------------------------------|------------------------0--|

Second rhythm and lead section:
There are more crazy sound effects in this section made by guitar 2
that are untabbable:
Guitar 1:
d|------------------|
A|------------------|
F|------------------| x8
C|------------------|
G|----7------7------|
D|-0----0-0----0-0--|

Guitar 2:
d|------------------|------------------|------------------|------------------|
A|-12~~~~~~~~~~~~~~~|------------------|------------------|------------------|
F|-14b16~~~~~~~~~~~~|------------------|------------------|------------------|
C|------------------|------------------|------------------|------------------|
G|------------------|------------------|------------------|------------------|
D|------------------|------------------|------------------|------------------|

d|------------------------------|------------------|--------------|--------------|
A|------------------------------|------------------|--------------|--------------|
F|--------12-14b16-14b16-14b16~~|-14b16--12h14-12--|--------------|--------------|
C|-----14-----------------------|------------------|--------------|--------------|
G|------------------------------|------------------|--------------|--------------|
D|-12---------------------------|------------------|--------------|--------------|

Guitar 1:
d|-----------------------|
A|-----------------------|
F|-----------------------| x4
C|---------------5/7--5--|
G|----7------7---7/9--7--|
D|-0----0-0----0---------|

Guitar 1:
d|--------------------|
A|--------------------|
F|--------------------| x4
C|---------------5-4--|
G|----7------7---7-6--|
D|-0----0-0----0------|

Guitar 1:
d|-7--7-7--7--7-7--7--|
A|-7--7-7--7--7-7--7--|
F|-7--7-7--7--7-7--7--| x4
C|-7--7-7--7--7-7--7--|
G|-7--7-7--7--7-7--7--|
D|-0--0-0--0--0-0--0--|

Guitar 1:
d|--------------------|
A|--------------------|
F|--------------------| x4
C|---------------5-4--|
G|----7------7---7-6--|
D|-0----0-0----0------|

Guitar 1 and 3:
d|---------------------|
A|---------------------|
F|---------------------| x4
C|-5--5-5-7--5-5-5--4--|
G|-7--7-7-9--7-7-7--6--|
D|-0--0-0-0--0-0-0--0--|

Guitar 1 and 3:
d|-------------|
A|-------------|
F|-------------| x4
C|-5--6--5--4--|
G|-7--8--7--6--|
D|-0--0--0--0--|

Guitar 1 and 3:
End on this chord:
d|-------------|
A|-------------|
F|-------------|
C|-5-----------|
G|-7-----------|
D|-0-----------|

Outro:
Guitar 2:
Slightly arpeggiate the chord and gently
dip your whammy bar a little bit:
d|-7-----------|
A|-7-----------|
F|-7-----------| x4
C|-7-----------|
G|-7-----------|
D|-0-----------|


************************************

| /   slide up
| \   slide down
| h   hammer-on
| p   pull-off
| ~   vibrato
| +   harmonic
| x   Mute note
| b   Bend
| pb  Pre-bend
| br  Bend release
| pbr Pre-bend release
| brb Bend release bend

************************************

            
            
Suggest correction
Creating personal tab
Creating personal tab
You can edit any tab online and save it as your Personal.

You can edit, replace or remove any tab part or add personal notes – all changes will be seen only by you.

Personal tabs can be accessed anytime from any device, even offline.
Learn more »
comments
print report bad tab
1 comment total.
0 reply
carterkelliott 755 Feb 07, 2016 04:56 PM

Awesome work, man! Teeny correction!

That chord at the end is actually this, played with a whammy bar dip:

d|-2-----------|
A|-2-----------|
F|-4-----------| x4
C|-0-----------|
G|-0-----------|
D|-------------|

Otherwise, fantastic work. I used this tab to learn this song originally, and I can tell you put a lot of effort into it.

guest
You may want to rate the tab now too:
select rating
Wanna post a correction for this tab? Suggest correction