Oops, an error
Loading. Please wait.

Keep On Lying tab

version 2
version 2

Whole song

10,871 views 27 this week
2 commentsread comments
1 2 3 4 5
x 9
add to favorites
×
Save as Personal and add changes to this tab that will be seen only by you. Learn more ›
×
You can save this tab as Personal to edit and correct it or add notes. All changes will be seen only by you. Learn more »
launch autoscroll
font size
0
reset
how to read this tab
guitar tuner
edit
Autoscroll
slow
fast
+/-
esc
set tempo
stop
Author
Difficulty
                        Tame Impala - Keep on Lying
                       from their 2012 album Lonerism

Verses:
"All I give are little clues,
Maybe one day I'll get through,
There is nothing I can do,
I'll just keep on lying to you,
I only need to say it's true,
Your poor little heart already knew,
But there is nothing you can do,
I'll just keep on lying to you,
Should my cover ever blow,
Would you ever let it go?
There is something you should know,
But hell if I'd ever let it show,
So here I am trying to be strong,
It was noon, now my shadow's long,
I guess I'll go and tell you just as soon as I
Get to the end of this song"
Synth:
e|-1.--1.--1.--1.--1.--1.--1.--1.--1.--1.--1.--1.--1.--1.--1.--1.--|
B|-1.--1.--1.--1.--3.--3.--3.--3.--1.--1.--1.--1.--3.--3.--3.--3.--|
G|-1.--1.--1.--1.--3.--3.--3.--3.--1.--1.--1.--1.--3.--3.--3.--3.--| \
D|-3.--3.--3.--3.--3.--3.--3.--3.--3.--3.--3.--3.--3.--3.--3.--3.--|  \
A|-3.--3.--3.--3.--1.--1.--1.--1.--3.--3.--3.--3.--1.--1.--1.--1.--|   \
E|-1.--1.--1.--1.------------------1.--1.--1.--1.------------------|    |
                                                                        |
e|-1.--1.--1.--1.--3.--3.--3.--3.--1.--1.--1.--1.--1.--1.--3.--3.--|    |
B|-1.--1.--1.--1.--3.--3.--3.--3.--3.--3.--3.--3.--3.--3.--4.--4.--|    |
G|-1.--1.--1.--1.--3.--3.--3.--3.--3.--3.--3.--3.--3.--3.--5.--5.--|    |
D|-3.--3.--3.--3.--5.--5.--5.--5.--3.--3.--3.--3.--3.--3.--5.--5.--|    |
A|-3.--3.--3.--3.--5.--5.--5.--5.--1.--1.--1.--1.--1.--1.--3.--3.--|    |
E|-1.--1.--1.--1.--3.--3.--3.--3.----------------------------------|    |
                                                                        | x2
e|-1.--1.--1.--1.--1.--1.--1.--1.--1.--1.--1.--1.--1.--1.--1.--1.--|    |
B|-1.--1.--1.--1.--3.--3.--3.--3.--1.--1.--1.--1.--3.--3.--3.--3.--|    |
G|-1.--1.--1.--1.--3.--3.--3.--3.--1.--1.--1.--1.--3.--3.--3.--3.--|    |
D|-3.--3.--3.--3.--3.--3.--3.--3.--3.--3.--3.--3.--3.--3.--3.--3.--|    |
A|-3.--3.--3.--3.--1.--1.--1.--1.--3.--3.--3.--3.--1.--1.--1.--1.--|    |
E|-1.--1.--1.--1.------------------1.--1.--1.--1.------------------|    |
                                                                        |
e|-1.--1.--1.--1.--3.--3.--3.--3.--4.--4.--4.--4.--1.--1.--3.--3.--|   /
B|-1.--1.--1.--1.--3.--3.--3.--3.--4.--4.--4.--4.--3.--3.--4.--4.--|  /
G|-1.--1.--1.--1.--3.--3.--3.--3.--5.--5.--5.--5.--3.--3.--5.--5.--| /
D|-3.--3.--3.--3.--5.--5.--5.--5.--6.--6.--6.--6.--3.--3.--5.--5.--|
A|-3.--3.--3.--3.--5.--5.--5.--5.--6.--6.--6.--6.--1.--1.--3.--3.--|
E|-1.--1.--1.--1.--3.--3.--3.--3.--4.--4.--4.--4.------------------|


Interlude:
"To the end of this song,
To the end of this song,
To the end of this song (the curse has won again),
To the end of this song,
Soon I'll be alone (to the end of this song),
Take all you can,
Please understand,
That it never really was love"
Synth:
e|-4.--4.--4.--4.--1.--1.--3.--3.--|
B|-4.--4.--4.--4.--3.--3.--4.--4.--|
G|-5.--5.--5.--5.--3.--3.--5.--5.--| x11
D|-6.--6.--6.--6.--3.--3.--5.--5.--|
A|-6.--6.--6.--6.--1.--1.--3.--3.--|
E|-4.--4.--4.--4.------------------|


1st guitar solo:
Synth:
e|-1.--1.--1.--1.--1.--1.--1.--1.--1.--1.--1.--1.--1.--1.--1.--1.--|
B|-1.--1.--1.--1.--3.--3.--3.--3.--1.--1.--1.--1.--3.--3.--3.--3.--|
G|-1.--1.--1.--1.--3.--3.--3.--3.--1.--1.--1.--1.--3.--3.--3.--3.--|
D|-3.--3.--3.--3.--3.--3.--3.--3.--3.--3.--3.--3.--3.--3.--3.--3.--|
A|-3.--3.--3.--3.--1.--1.--1.--1.--3.--3.--3.--3.--1.--1.--1.--1.--|
E|-1.--1.--1.--1.------------------1.--1.--1.--1.------------------|

e|-1.--1.--1.--1.--3.--3.--3.--3.--1.--1.--1.--1.--1.--1.--3.--3.--|
B|-1.--1.--1.--1.--3.--3.--3.--3.--3.--3.--3.--3.--3.--3.--4.--4.--|
G|-1.--1.--1.--1.--3.--3.--3.--3.--3.--3.--3.--3.--3.--3.--5.--5.--|
D|-3.--3.--3.--3.--5.--5.--5.--5.--3.--3.--3.--3.--3.--3.--5.--5.--|
A|-3.--3.--3.--3.--5.--5.--5.--5.--1.--1.--1.--1.--1.--1.--3.--3.--|
E|-1.--1.--1.--1.--3.--3.--3.--3.----------------------------------|

e|-1.--1.--1.--1.--1.--1.--1.--1.--1.--1.--1.--1.--1.--1.--1.--1.--|
B|-1.--1.--1.--1.--3.--3.--3.--3.--1.--1.--1.--1.--3.--3.--3.--3.--|
G|-1.--1.--1.--1.--3.--3.--3.--3.--1.--1.--1.--1.--3.--3.--3.--3.--|
D|-3.--3.--3.--3.--3.--3.--3.--3.--3.--3.--3.--3.--3.--3.--3.--3.--|
A|-3.--3.--3.--3.--1.--1.--1.--1.--3.--3.--3.--3.--1.--1.--1.--1.--|
E|-1.--1.--1.--1.------------------1.--1.--1.--1.------------------|

e|-1.--1.--1.--1.--3.--3.--3.--3.--4.--4.--4.--4.--1.--1.--3.--3.--|
B|-1.--1.--1.--1.--3.--3.--3.--3.--4.--4.--4.--4.--3.--3.--4.--4.--|
G|-1.--1.--1.--1.--3.--3.--3.--3.--5.--5.--5.--5.--3.--3.--5.--5.--|
D|-3.--3.--3.--3.--5.--5.--5.--5.--6.--6.--6.--6.--3.--3.--5.--5.--|
A|-3.--3.--3.--3.--5.--5.--5.--5.--6.--6.--6.--6.--1.--1.--3.--3.--|
E|-1.--1.--1.--1.--3.--3.--3.--3.--4.--4.--4.--4.------------------|

Guitar:
e|-------------------------------------------------------------------------------------------|
B|-------------------------------------------------------------------------------------------|
G|---------------------------10-10-8-8-7-7-/12-12-10-10-8-8-/14-1414-12-12-12-12-12-12-12-12-|
D|-----------------10-10-8-8-----------------------------------------------------------------|
A|-8-8-10-10-11-11---------------------------------------------------------------------------|
E|-------------------------------------------------------------------------------------------|

e|------------------------------------------------------------------------------------|
B|------------------------------------------------------------------------------------|
G|-------------------------------/10-10-8-8-7-7-------/14-14-12-12-/15-15-15-13-12----|
D|-----------------10-10-8-8-7-7----------------10-10---------------------------------|
A|-8-8-10-10-11-11--------------------------------------------------------------------|
E|------------------------------------------------------------------------------------|

e|-----------------------------------------------------------------------------|
B|-----------------------------------------------------------------------------|
G|---------------------7-7-----------/12-12-10-10-8-8-7-7-8-8-7-7--------------|
D|-----------------8-8-----10-10-8-8------------------------------8-8-8-8-8-8--|
A|-8-8-10-10-11-11-------------------------------------------------------------|
E|-----------------------------------------------------------------------------|

e|--------------------------------------------------------------------------------------------------|
B|--------------------------------------------------------------------------------------------------|
G|-/15~15~15~15~15~15~15~15~15~15~15~15~15~15~15~15~15~15~15~15~15~15~15~15~15~15~------------------|
D|--------------------------------------------------------------------------------------------10-10-|
A|--------------------------------------------------------------------------------10-10-11-11-------|
E|--------------------------------------------------------------------------------------------------|


Guitar riff comes in:
Synth:
e|-1.--1.--1.--1.--1.--1.--1.--1.--1.--1.--1.--1.--1.--1.--1.--1.--|
B|-1.--1.--1.--1.--3.--3.--3.--3.--1.--1.--1.--1.--3.--3.--3.--3.--|
G|-1.--1.--1.--1.--3.--3.--3.--3.--1.--1.--1.--1.--3.--3.--3.--3.--| \
D|-3.--3.--3.--3.--3.--3.--3.--3.--3.--3.--3.--3.--3.--3.--3.--3.--|  \
A|-3.--3.--3.--3.--1.--1.--1.--1.--3.--3.--3.--3.--1.--1.--1.--1.--|   \
E|-1.--1.--1.--1.------------------1.--1.--1.--1.------------------|    |
                                                                        |
e|-1.--1.--1.--1.--3.--3.--3.--3.--1.--1.--1.--1.--1.--1.--3.--3.--|    |
B|-1.--1.--1.--1.--3.--3.--3.--3.--3.--3.--3.--3.--3.--3.--4.--4.--|    |
G|-1.--1.--1.--1.--3.--3.--3.--3.--3.--3.--3.--3.--3.--3.--5.--5.--|    |
D|-3.--3.--3.--3.--5.--5.--5.--5.--3.--3.--3.--3.--3.--3.--5.--5.--|    |
A|-3.--3.--3.--3.--5.--5.--5.--5.--1.--1.--1.--1.--1.--1.--3.--3.--|    |
E|-1.--1.--1.--1.--3.--3.--3.--3.----------------------------------|    |
                                                                        | x2
e|-1.--1.--1.--1.--1.--1.--1.--1.--1.--1.--1.--1.--1.--1.--1.--1.--|    |
B|-1.--1.--1.--1.--3.--3.--3.--3.--1.--1.--1.--1.--3.--3.--3.--3.--|    |
G|-1.--1.--1.--1.--3.--3.--3.--3.--1.--1.--1.--1.--3.--3.--3.--3.--|    |
D|-3.--3.--3.--3.--3.--3.--3.--3.--3.--3.--3.--3.--3.--3.--3.--3.--|    |
A|-3.--3.--3.--3.--1.--1.--1.--1.--3.--3.--3.--3.--1.--1.--1.--1.--|    |
E|-1.--1.--1.--1.------------------1.--1.--1.--1.------------------|    |
                                                                        |
e|-1.--1.--1.--1.--3.--3.--3.--3.--4.--4.--4.--4.--1.--1.--3.--3.--|   /
B|-1.--1.--1.--1.--3.--3.--3.--3.--4.--4.--4.--4.--3.--3.--4.--4.--|  /
G|-1.--1.--1.--1.--3.--3.--3.--3.--5.--5.--5.--5.--3.--3.--5.--5.--| /
D|-3.--3.--3.--3.--5.--5.--5.--5.--6.--6.--6.--6.--3.--3.--5.--5.--|
A|-3.--3.--3.--3.--5.--5.--5.--5.--6.--6.--6.--6.--1.--1.--3.--3.--|
E|-1.--1.--1.--1.--3.--3.--3.--3.--4.--4.--4.--4.------------------|

e|-1.--1.--1.--1.--1.--1.--1.--1.--1.--1.--1.--1.--1.--1.--1.--1.--|
B|-1.--1.--1.--1.--3.--3.--3.--3.--1.--1.--1.--1.--3.--3.--3.--3.--|
G|-1.--1.--1.--1.--3.--3.--3.--3.--1.--1.--1.--1.--3.--3.--3.--3.--|
D|-3.--3.--3.--3.--3.--3.--3.--3.--3.--3.--3.--3.--3.--3.--3.--3.--|
A|-3.--3.--3.--3.--1.--1.--1.--1.--3.--3.--3.--3.--1.--1.--1.--1.--|
E|-1.--1.--1.--1.------------------1.--1.--1.--1.------------------|

e|-1.--1.--1.--1.--3.--3.--3.--3.--1.--1.--1.--1.--1.--1.--3.--3.--|
B|-1.--1.--1.--1.--3.--3.--3.--3.--3.--3.--3.--3.--3.--3.--4.--4.--|
G|-1.--1.--1.--1.--3.--3.--3.--3.--3.--3.--3.--3.--3.--3.--5.--5.--|
D|-3.--3.--3.--3.--5.--5.--5.--5.--3.--3.--3.--3.--3.--3.--5.--5.--|
A|-3.--3.--3.--3.--5.--5.--5.--5.--1.--1.--1.--1.--1.--1.--3.--3.--|
E|-1.--1.--1.--1.--3.--3.--3.--3.----------------------------------|

Guitar:
e|-----------------------------------------------------------------------------------------|
B|-----------------------------------------------------------------------------------------|
G|-----------------------------------------------------------------------------------------|
D|--------1.--3/5.--0-----------1h3.--3/5.--3-----------1.--3/5.--0----3--1-0----0---------|
A|----1-3-------------------1-3---------------------1-3-----------------------1-----1-3----|
E|-1-.-------------------1-.---------------------1-.---------------------------------------|

e|-----------------------------------------------------------------------------------------|
B|-----------------------------------------------------------------------------------------|
G|-----------------------------------------------------------------------------------------| x3
D|--------1.--3/5.--0---------------3/5.--3-----------------1/3.--0----3--1-0----0---------|
A|----1-3------------------------3.---------------------3.--------------------1-----1-3----|
E|-1-.-------------------1-.-3-4----------------1-.-3-4------------------------------------|

e|-----------------------------------------------------------------------------------------------|
B|-----------------------------------------------------------------------------------------------|
G|-----------------------------------------------------------------------------------------------|
D|--------1.--3/5.--3-----------1.--3/5.--5-/6\5\3-3--------------1/3.--0----3--1-0----0---------|
A|----1-3-------------------1-3-------------------------------3.--------------------1-----1-3----|
E|-1-.-------------------1-.--------------------------1-.-3-4------------------------------------|

Organ comes in after the first chord progression
(3rd block of the synth chords above):
e|----------------------------------------------------|
B|----------------------------------------------------|
G|-----10---7--8-7--------------------------10--------| x4
D|-------------------10---------------------10--------|
A|-8-----------------------10--11-10---8--------------|
E|----------------------------------------------------|


2nd guitar solo:
Synth:
e|-1.--1.--1.--1.--1.--1.--1.--1.--1.--1.--1.--1.--1.--1.--1.--1.--|
B|-1.--1.--1.--1.--3.--3.--3.--3.--1.--1.--1.--1.--3.--3.--3.--3.--|
G|-1.--1.--1.--1.--3.--3.--3.--3.--1.--1.--1.--1.--3.--3.--3.--3.--| \
D|-3.--3.--3.--3.--3.--3.--3.--3.--3.--3.--3.--3.--3.--3.--3.--3.--|  \
A|-3.--3.--3.--3.--1.--1.--1.--1.--3.--3.--3.--3.--1.--1.--1.--1.--|   \
E|-1.--1.--1.--1.------------------1.--1.--1.--1.------------------|    |
                                                                        |
e|-1.--1.--1.--1.--3.--3.--3.--3.--4.--4.--4.--4.--1.--1.--3.--3.--|    |
B|-1.--1.--1.--1.--3.--3.--3.--3.--4.--4.--4.--4.--3.--3.--4.--4.--|    |
G|-1.--1.--1.--1.--3.--3.--3.--3.--5.--5.--5.--5.--3.--3.--5.--5.--|    |
D|-3.--3.--3.--3.--5.--5.--5.--5.--6.--6.--6.--6.--3.--3.--5.--5.--|    |
A|-3.--3.--3.--3.--5.--5.--5.--5.--6.--6.--6.--6.--1.--1.--3.--3.--|    |
E|-1.--1.--1.--1.--3.--3.--3.--3.--4.--4.--4.--4.------------------|    |
                                                                        | x3
e|-1.--1.--1.--1.--1.--1.--1.--1.--1.--1.--1.--1.--1.--1.--1.--1.--|    |
B|-1.--1.--1.--1.--3.--3.--3.--3.--1.--1.--1.--1.--3.--3.--3.--3.--|    |
G|-1.--1.--1.--1.--3.--3.--3.--3.--1.--1.--1.--1.--3.--3.--3.--3.--|    |
D|-3.--3.--3.--3.--3.--3.--3.--3.--3.--3.--3.--3.--3.--3.--3.--3.--|    |
A|-3.--3.--3.--3.--1.--1.--1.--1.--3.--3.--3.--3.--1.--1.--1.--1.--|    |
E|-1.--1.--1.--1.------------------1.--1.--1.--1.------------------|    |
                                                                        |
e|-1.--1.--1.--1.--3.--3.--3.--3.--1.--1.--1.--1.--1.--1.--3.--3.--|   /
B|-1.--1.--1.--1.--3.--3.--3.--3.--3.--3.--3.--3.--3.--3.--4.--4.--|  /
G|-1.--1.--1.--1.--3.--3.--3.--3.--3.--3.--3.--3.--3.--3.--5.--5.--| /
D|-3.--3.--3.--3.--5.--5.--5.--5.--3.--3.--3.--3.--3.--3.--5.--5.--|
A|-3.--3.--3.--3.--5.--5.--5.--5.--1.--1.--1.--1.--1.--1.--3.--3.--|
E|-1.--1.--1.--1.--3.--3.--3.--3.----------------------------------|

Organ:
e|----------------------------------------------------|
B|----------------------------------------------------|
G|-----10---7--8-7--------------------------10--------|
D|-------------------10---------------------10--------|
A|-8-----------------------10--11-10---8--------------|
E|----------------------------------------------------|

Guitar:
e|-----------------------------------------------------|
B|-8---------8----------------8------------------------|
G|-10b12-----10b12--r10--8----10b12-r10----------------|
D|-----------------------------------------------------|
A|-----------------------------------------------------|
E|-----------------------------------------------------|

e|--------------------------------------------------------------------|
B|-13------11----9--/18------------------9-11b13--9h11p9h11p9h11p9-9--|
G|------------------------------------10------------------------------|
D|-------------------------8-------10---------------------------------|
A|-------------------------8------------------------------------------|
E|--------------------------------------------------------------------|

e|--------------------------------------------------------------------|
B|-11b13.-11-9--11b13.-11.-9-11.--11b13r11-----------8.-9.-8b9r8------|
G|-----------------------------------------10---8h10-------------8----|
D|--------------------------------------------------------------------|
A|--------------------------------------------------------------------|
E|--------------------------------------------------------------------|

e|---------------------------------------------------------------------------|
B|-8.-8b9r8-----------11b13r11-8--/9----8h9-8h9-8h9-8h9----------------------|
G|----------8--/10-------------------------------------------------13--13----|
D|-----------------------------------------------------------------13--13----|
A|---------------------------------------------------------------------------|
E|---------------------------------------------------------------------------|

e|---------------------------------------------------------------------------------|
B|-11-9-11-9-11-9-11-9-11-9-11-9-11-9-11-9-11-9-11-9-11-9-11-9-11-9-11-9-11-9-11-9-|
G|---------------------------------------------------------------------------------| x2   \
D|---------------------------------------------------------------------------------|       \
A|---------------------------------------------------------------------------------|        \
E|---------------------------------------------------------------------------------|         |
                                                                                             | x2
e|-------------------------------------------------------------------------|                 |
B|-11-9-11-9-11-9-11-9-11-9-11-9-11-9-11-9-11-9-11-9-11-9-11-9--11p9--9----|                /
G|-------------------------------------------------------------------------|               /
D|-------------------------------------------------------------------------|              /
A|-------------------------------------------------------------------------|
E|-------------------------------------------------------------------------|


Back to the guitar riff from earlier:
Synth:
e|-1.--1.--1.--1.--1.--1.--1.--1.--1.--1.--1.--1.--1.--1.--1.--1.--|
B|-1.--1.--1.--1.--3.--3.--3.--3.--1.--1.--1.--1.--3.--3.--3.--3.--|
G|-1.--1.--1.--1.--3.--3.--3.--3.--1.--1.--1.--1.--3.--3.--3.--3.--|
D|-3.--3.--3.--3.--3.--3.--3.--3.--3.--3.--3.--3.--3.--3.--3.--3.--|
A|-3.--3.--3.--3.--1.--1.--1.--1.--3.--3.--3.--3.--1.--1.--1.--1.--|
E|-1.--1.--1.--1.------------------1.--1.--1.--1.------------------|

e|-1.--1.--1.--1.--3.--3.--3.--3.--4.--4.--4.--4.--1.--1.--3.--3.--|
B|-1.--1.--1.--1.--3.--3.--3.--3.--4.--4.--4.--4.--3.--3.--4.--4.--|
G|-1.--1.--1.--1.--3.--3.--3.--3.--5.--5.--5.--5.--3.--3.--5.--5.--|
D|-3.--3.--3.--3.--5.--5.--5.--5.--6.--6.--6.--6.--3.--3.--5.--5.--|
A|-3.--3.--3.--3.--5.--5.--5.--5.--6.--6.--6.--6.--1.--1.--3.--3.--|
E|-1.--1.--1.--1.--3.--3.--3.--3.--4.--4.--4.--4.------------------|

e|-4.--4.--4.--4.--1.--1.--3.--3.--|
B|-4.--4.--4.--4.--3.--3.--4.--4.--|
G|-5.--5.--5.--5.--3.--3.--5.--5.--| x4
D|-6.--6.--6.--6.--3.--3.--5.--5.--|
A|-6.--6.--6.--6.--1.--1.--3.--3.--|
E|-4.--4.--4.--4.------------------|

Guitar:
e|----------------------------------------------------------------------------------------|
B|----------------------------------------------------------------------------------------|
G|----------------------------------------------------------------------------------------|
D|--------1.--3/5.--0------------1.-3/5-\3-----------------1/3.--0----3/5--3-1---1--------|
A|----1-3----------------------1-----------------------3.---------------------------1--3--|
E|-1-.-------------------1-.-4-----------------1-.-3-4------------------------------------|

e|---------------------|
B|---------------------|
G|---------------------| x4
D|-3/5--3-1---1--------|
A|---------------1--3--|
E|---------------------|


Outro verse:
"All I give are little clues,
Maybe one day I'll get through,
There is nothing I can do,
I'll just keep on lying to you"
Synth:
e|-1.--1.--1.--1.--1.--1.--1.--1.--1.--1.--1.--1.--1.--1.--1.--1.--|
B|-1.--1.--1.--1.--3.--3.--3.--3.--1.--1.--1.--1.--3.--3.--3.--3.--|
G|-1.--1.--1.--1.--3.--3.--3.--3.--1.--1.--1.--1.--3.--3.--3.--3.--|
D|-3.--3.--3.--3.--3.--3.--3.--3.--3.--3.--3.--3.--3.--3.--3.--3.--|
A|-3.--3.--3.--3.--1.--1.--1.--1.--3.--3.--3.--3.--1.--1.--1.--1.--|
E|-1.--1.--1.--1.------------------1.--1.--1.--1.------------------|

e|-1.--1.--1.--1.--3.--3.--3.--3.--1.--1.--1.--1.--1.--1.--3.--3.--|
B|-1.--1.--1.--1.--3.--3.--3.--3.--3.--3.--3.--3.--3.--3.--4.--4.--|
G|-1.--1.--1.--1.--3.--3.--3.--3.--3.--3.--3.--3.--3.--3.--5.--5.--|
D|-3.--3.--3.--3.--5.--5.--5.--5.--3.--3.--3.--3.--3.--3.--5.--5.--|
A|-3.--3.--3.--3.--5.--5.--5.--5.--1.--1.--1.--1.--1.--1.--3.--3.--|
E|-1.--1.--1.--1.--3.--3.--3.--3.----------------------------------|

Guitar:
e|---------------------------------------------------------------------------------------|
B|---------------------------------------------------------------------------------------|
G|---------------------------------------------------------------------------------------|
D|--------1.--3/5.--0-----------1.--3/5.--3-----------1.--3/5.--0----3--1-0----0---------|
A|----1-3-------------------1-3-------------------1-3-----------------------1-----1-3----|
E|-1-.-------------------1-.-------------------1-.---------------------------------------|

Keyboard:
e|-----------------------------------|
B|-----------------------------------|
G|-10--10-10--10-10--10-10-10-10-10--| x3
D|-----------------------------------|
A|-----------------------------------|
E|-----------------------------------|

e|-13--13-13--13-13--13-13-13-13-13--|
B|-----------------------------------|
G|-----------------------------------| x5
D|-----------------------------------|
A|-----------------------------------|
E|-----------------------------------|

Fade out.



************************************

| /   slide up
| \   slide down
| h   hammer-on
| p   pull-off
| ~   vibrato
| +   harmonic
| x   Mute note
| .   staccato
| b   Bend
| pb  Pre-bend
| br  Bend release
| pbr Pre-bend release
| brb Bend release bend

************************************

            
            
Suggest correction
Creating personal tab
Creating personal tab
You can edit any tab online and save it as your Personal.

You can edit, replace or remove any tab part or add personal notes – all changes will be seen only by you.

Personal tabs can be accessed anytime from any device, even offline.
Learn more »
comments
print report bad tab
2 comments total.
0 reply
David-Argentina 181 May 20, 2014 10:51 AM

thanks, very useful to play with standard tuning, the original version use D tuning.

+1 reply
bptrav 44 Jun 07, 2015 04:10 PM

Good tab for the most part but the main riff (and its variations) of the song is played an octave higher except for the very first time it is played.

This comment system won't let me add a long enough tab to correct it all, and my tab of this song with the corrections in it has been rejected, so I guess you'll just have to figure it out on your own. Here is a short example of what I mean though:

Guitar:
e|-----------------------------------------------------------------------------------------|
B|-----------------------------------------------------------------------------------------|
G|-----------------------------------------------------------------------------------------|
D|--------1.--3/5.--0-----------1h3.--3/5.--3-----------1.--3/5.--0----3--1-0----0---------|
A|----1-3-------------------1-3---------------------1-3-----------------------1-----1-3----|
E|-1-.-------------------1-.---------------------1-.---------------------------------------|

e|----------------------------------------------------------------------------------------|
B|----------------------------------------------------------------------------------------|
G|--------8-10/12-------------------10/12-10--------------8/10-7--10-8-7---7--------------| x3
D|---8-10---------12-------------10--------------------10----------------8---8-10---------|
A|-8---------------------8-10-11---------------8-10-11------------------------------------|
E|----------------------------------------------------------------------------------------|

e|----------------------------------------------------------------------------------------------|
B|----------------------------------------------------------------------------------------------|
G|--------8-10/12-10------------8-10/12-12/13\12\10 10----------------8/10-7-10-8-7---7---------|
D|---8-10------------------8-10------------------------------------10---------------8---8-10----|
A|-8---------------------8---------------------------------8-10-11------------------------------|
E|----------------------------------------------------------------------------------------------|

guest
You may want to rate the tab now too:
select rating
Wanna post a correction for this tab? Suggest correction