Oops, an error
Loading. Please wait.

Mind Mischief bass

version 1
version 1

Whole song

Interactive

22,412 views 72 this week
3 commentsread comments
1 2 3 4 5
x 10
add to favorites
×
Save as Personal and add changes to this tab that will be seen only by you. Learn more ›
×
You can save this tab as Personal to edit and correct it or add notes. All changes will be seen only by you. Learn more »
launch autoscroll
font size
0
reset
guitar tuner
backing track
0:00
0:00
edit
Autoscroll
slow
fast
+/-
esc
set tempo
stop
Author
Difficulty
Tame Impala ///// Mind Mischief ///// Lonerism 

Bass Tab

[Chorus/Main riff]
[0:24]
G|----------------------------------------------------|        
D|---------11h13-11-----------------------------------|
A|--9-11\-----------11p9h11-9---------------9----9-11-|
E|--------------------------------------9h11-9h11-----|

G|-------------------------------------------------|
D|---11h13-11--------------------------------------|
A|------------11--13--9---------------9----9-11----|
E|--------------------------------9h11-9h11--------|

G|----------------------------------------------|
D|---11h13-11-----------------------------------|
A|------------11p9h11-9---------------9----9-11-|
E|--------------------------------9h11-9h11-----|

G|-------------------------------------------------|
D|---11h13-11--------------------------------------|
A|------------11--13--9---------------9----9-11----|
E|--------------------------------9h11-9h11--------|

[1:12]
G|----------------------------------------------------|
D|---------11h13-11-----------------------------------|
A|--9-11\-----------11p9h11-9---------------9----9-11-|
E|--------------------------------------9h11-9h11-----|

G|-------------------------------------------------|
D|---11h13-11--------------------------------------|
A|------------11--13--9---------------9----9-11----|
E|--------------------------------9h11-9h11--------|

G|-------------------------------------------|
D|---11h13-11--------------------------------|
A|------------11---9---------------9----9-11-|
E|-----------------------------9h11-9h11-----|

G|-----------------------------------------|
D|---11h13-11------------------------------|
A|------------11--13--9---------------9----|
E|--------------------------------9h11-----|

[1:59]
G|-------------------------------------------------|
D|---------11h13-11--------------------------------|
A|--9-11\-----------11---9---------------9----9-11-|
E|-----------------------------------9h11-9h11-----|

G|-------------------------------------------------|
D|---11h13-11--------------------------------------|
A|------------11--13--9---------------9----9-11----|
E|--------------------------------9h11-9h11--------|

G|-------------------------------------------------|
D|---------11h13-11--------------------------------|
A|--9-11\-----------11---9---------------9----9-11-|
E|-----------------------------------9h11-9h11-----|

G|-----------------------------------|
D|---11h13-11------------------------|
A|------------11--13--9--------------|
E|-----------------------------------|                 

G|-------------------------------------------------|
D|---------11h13-11--------------------------------|
A|--9-11\-----------11---9---------------9----9-11-|
E|-----------------------------------9h11-9h11-----|

G|-------------------------------------------------|
D|---11h13-11--------------------------------------|
A|------------11--13--9---------------9----9-11----|
E|--------------------------------9h11-9h11--------|

G|-------------------------------------------------|
D|---------11h13-11--------------------------------|
A|--9-11\-----------11---9---------------9----9-11-|
E|-----------------------------------9h11-9h11-----|

G|-----------------------------------------|
D|---11h13-11------------------------------|
A|------------11--13--9---------------9----|
E|--------------------------------9h11-----|

G|-----------------------------|
D|--9--9--99-9---8--8--88-8--8-|
A|-----------------------------|
E|-----------------------------|

G|-------------------------------------|
D|-9--9--11h13-11-9--8--8--88-8--8-----|
A|-------------------------------------|
E|-------------------------------------|
  
G|-----------------------------|
D|--9--9--99-9---8--8--88-8--8-|
A|-----------------------------|
E|-----------------------------|

G|----------------------------|
D|--9--9--9p8h9p8h9p6---------|
A|-----------------------8----|
E|----------------------------|

G|-------------------------------------------------|
D|---------11h13-11--------------------------------|
A|--9-11\-----------11---9---------------9----9-11-|
E|-----------------------------------9h11-9h11-----|

G|-------------------------------------------------|
D|---11h13-11--------------------------------------|
A|------------11--13--9---------------9----9-11----|
E|--------------------------------9h11-9h11--------|

G|-------------------------------------------------|
D|---------11h13-11--------------------------------|
A|--9-11\-----------11---9---------------9----9-11-|
E|-----------------------------------9h11-9h11-----|

G|-----------------------------------|
D|---11h13-11------------------------|
A|------------11--13--9--------------|
E|-----------------------------------|

[3:38]
G|-----------------------------|
D|--9--9--99-9---8--8--88-8--8-|
A|-----------------------------|
E|-----------------------------|

G|-------------------------------------|
D|-9--9--11h13-11-9--8--8--88-8--8-----|
A|-------------------------------------|
E|-------------------------------------|
  
G|-----------------------------|
D|--9--9--99-9---8--8--88-8--8-|
A|-----------------------------|
E|-----------------------------|

G|----------------------------|
D|--9--9--9p8h9p8h9p6---------|
A|-----------------------8----|
E|----------------------------|

G|-----------------------------|
D|--9--9--99-9---8--8--88-8--8-|
A|-----------------------------|
E|-----------------------------|

G|-------------------------------------|
D|-9--9--11h13-11-9--8--8--88-8--8-----|
A|-------------------------------------|
E|-------------------------------------|
  
G|-----------------------------|
D|--9--9--99-9---8--8--88-8--8-|
A|-----------------------------|
E|-----------------------------|

G|--------13-------------------|
D|--11h13-----11h13-11---------|
A|---------------------11---9--|
E|-----------------------------|


************************************

| h  Hammer-on
| p  Pull-off
| \  Slide down

************************************

My best interpretation of the song. enjoy.

            
            
Suggest correction
Creating personal tab
Creating personal tab
You can edit any tab online and save it as your Personal.

You can edit, replace or remove any tab part or add personal notes – all changes will be seen only by you.

Personal tabs can be accessed anytime from any device, even offline.
Learn more »
comments
print report bad tab
3 comments total. show 1 bad comment
0 reply
SorefaChina 10 Jun 03, 2014 05:12 AM, edited at 09:15 am

.

+1 reply
michael940803 82 Dec 21, 2016 10:31 PM

I get your idea. Even thought i doubt the bass being like you say, here is a correction

Chorus/Main riff. [0:24]
G||----------------------------------------|
D||---------11h13-11--9-11--8h9-8----------|
A||--9-11\-------------------------9-------|
E||----------------------------------------|

guest
You may want to rate the tab now too:
select rating
Wanna post a correction for this tab? Suggest correction