Oops, an error
Loading. Please wait.

Yes Im Changing bass

version 1
version 1

Whole song

Interactive

6,415 views 75 this week
1 commentread comment
1 2 3 4 5
x 9
add to favorites
×
Save as Personal and add changes to this tab that will be seen only by you. Learn more ›
×
You can save this tab as Personal to edit and correct it or add notes. All changes will be seen only by you. Learn more »
launch autoscroll
font size
0
reset
guitar tuner
edit
Autoscroll
slow
fast
+/-
esc
set tempo
stop
Author
YES I'M CHANGING - Tame Impala
Tabbed by: The Dentist's Apprentice
E-mail: micealcwilson@gmail.com
Tuning: Standard

G|---------------------------------------------------------------------------|
D|--5--------------5---------------2---2-2-2-2-2-3----2-2-2-2-2-2------------|
A|----3--3-3-3-3-3---3--3-3-3-3-3---3--------------3-------------------------|
E|---------------------------------------------------------------------------|

G|---------------------------------------------------------------------------|
D|---2-2-2-2-2-3---2-2-2-2-2-3---2-2-2-2-2----------2-3----------------------|
A|-0-------------3-------------3-----------3--3-3-3--------------------------|
E|---------------------------------------------------------------------------|

G|---------------------------------------------------------------------------|
D|--5--------------5---------------2---2-2-2-2-2-3----2-2-2-2-2-2------------|
A|----3--3-3-3-3-3---3--3-3-3-3-3---3--------------3-------------------------|
E|---------------------------------------------------------------------------|

G|---------------------------------------------------------------------------|
D|---2-2-2-2-2-3---2-2-2-2-2-3---2-2-2-2-2----------2-3----------------------|
A|-0-------------3-------------3-----------3--3-3-3--------------------------|
E|---------------------------------------------------------------------------|

1:07
G|---------------------------------------------------------------------------|
D|--5--------------5---------------2---2-2-2-2-2-3----2-2-2-3-5-7--7-7-7-7-7-|
A|----3--3-3-3-3-3---3--3-3-3-3-3---3--------------3-------------------------|
E|---------------------------------------------------------------------------|

G|---------------------------------------------------------------------------|
D|-2--2-2-2-2-2-3----2-2-2-2-2---------2-3-----------------------------------|
A|----------------2------------3--3-3-3--------------------------------------|
E|---------------------------------------------------------------------------|

Repeat:
G|---------------------------------------------------------------------------|
D|--5--------------5---------------2---2-2-2-2-2-3----2-2-2-2-2-2------------|
A|----3--3-3-3-3-3---3--3-3-3-3-3---3--------------3-------------------------|
E|---------------------------------------------------------------------------|

G|---------------------------------------------------------------------------|
D|---2-2-2-2-2-3---2-2-2-2-2-3---2-2-2-2-2----------2-3----------------------|
A|-0-------------3-------------3-----------3--3-3-3--------------------------|
E|---------------------------------------------------------------------------|

Transition:
G|---------------------------------------------------------------------------|
D|---------------------------------------------------------------------------|
A|-0~------wait-------0-0-0-0-0--7--7-7-7-7-7-8--8-8-8-8-8-------------------|
E|---------------------------------------------------------------------------|

G|-------------------------10------------------------------------------------|
D|----------------------10-----------------repeat----------------------------|
A|--3--3-3-3-3-3/8--8-8------------------------------------------------------|
E|---------------------------------------------------------------------------|

************************************

| ~  Vibrato
| /  Slide up

************************************

            
            
Suggest correction
Creating personal tab
Creating personal tab
You can edit any tab online and save it as your Personal.

You can edit, replace or remove any tab part or add personal notes – all changes will be seen only by you.

Personal tabs can be accessed anytime from any device, even offline.
Learn more »
comments
print report bad tab
1 comment total.
0 reply
bunii 269 Feb 19, 2016 04:01 PM

awesome! almost exactly the same as what i've been playing since the album came out. thanks for posting!

guest
You may want to rate the tab now too:
select rating
Wanna post a correction for this tab? Suggest correction