Oops, an error
Loading. Please wait.

Choro tab

by Tanque
133 views 1 this week
no commentswrite comment
1 2 3 4 5
3 more votes to show rating
add to favorites
×
Save as Personal and add changes to this tab that will be seen only by you. Learn more ›
×
You can save this tab as Personal to edit and correct it or add notes. All changes will be seen only by you. Learn more »
launch autoscroll
font size
0
reset
how to read this tab
guitar tuner
edit
Autoscroll
slow
fast
+/-
esc
set tempo
stop
!!!vamos¡¡¡
consume lo nuestro: made in Ecuador

Choro

Intro:
00:00

E----------------
B----------------
G---------------- x5
D---7----77------
A---7----77------
E---5----55------

00:17
E-------------------------------------------
B-------------------------------------------
G------------------------------------------- x2
D---777-10-9-777-10-9-777-10-9-7--22--55----
A---777-10-9-777-10-9-777-10-9-7--22--55----
E---555-8--7-555-8--7-555-8--7-5--00-33-----

00:29
 A5           C5
Van tres días sin comer
G5                      D5
Quizá en la iglesia hay alimento
 A5           C5
La plata me voa coger
G5             D5
De la canasta del convento.
 A5              C5
Me persigue la multitud
G5             D5
Un grosero me vota al suelo
 A5               C5
No comprenden mi actitud
G5                D5
Ya ni el cura me da consuelo.

CORO:

A5      C5B5A5
SI LA limosna
        C5B5A5
El se la coge
            C5B5A5
Quien es el choro
     E5  G5
El cura o yo..?
       C5B5A5
Es la mafia
       C5B5A5
Del convento
           C5B5A5    E5    G5
La que me ha sentenciado hoy


A5                 C5
Mi primera noche en el penal
G5                   D5
Entre las garras de este infierno
A5                    C5
Millones de ojos de pervención
G5                 D5
Aniquilando mi fundido cerebro
A5              C5
Mi pregunta es que hago yo
G5           D5
Entre todos estos cerdos
A5              C5
Si criminales de corbata
G5              D5
Por las calles andas sueltos.

CORO

E-------------------------------------------
B-------------------------------------------
G------------------------------------------- x2
D---777-10-9-777-10-9-777-10-9-7--22--55----
A---777-10-9-777-10-9-777-10-9-7--22--55----
E---555-8--7-555-8--7-555-8--7-5--00--33----

01:40
E----------------
B----------------
G---------------- x5
D---7----77------
A---7----77------
E---5----55------

02:01
E--------------------------
B--------------------------
G-------------------------- x4
D----------77-10-10-55-----
A----------77-10-10-55-----
E--11-10-8-55-8--8--33-----

02:11
E--------------
B--------------
G-------------- x4
D--------------
A--------------
E--11-10-8-----

E----------
B----------
G----------
D----7----
A----7----
E----5----

            
            
Suggest correction
Creating personal tab
Creating personal tab
You can edit any tab online and save it as your Personal.

You can edit, replace or remove any tab part or add personal notes – all changes will be seen only by you.

Personal tabs can be accessed anytime from any device, even offline.
Learn more »
Give kudos to tab author, rate the tab!
1 2 3 4 5
comments
print report bad tab
guest
Wanna post a correction for this tab? Suggest correction