Oops, an error
Loading. Please wait.

Mindshift tab

version 1
version 1

Whole song

Interactive

by Tauk
139 views 1 this week
1 commentread comment
1 2 3 4 5
3 more votes to show rating
add to favorites
×
Save as Personal and add changes to this tab that will be seen only by you. Learn more ›
×
You can save this tab as Personal to edit and correct it or add notes. All changes will be seen only by you. Learn more »
launch autoscroll
font size
0
reset
how to read this tab
guitar tuner
edit
Autoscroll
slow
fast
+/-
esc
set tempo
stop
Mindshift by Tauk                                 
Hunter Bauer
Bauerhunter11@gmail.com                                                            

     W                 W                   W                 
e|-------------------|-------------------|-------------------|
B|-------------------|-------------------|-------------------|
G|-------------------|-------------------|-------------------|
D|-------------------|-------------------|-------------------|
A|-------------------|-------------------|-------------------|
E|-------------------|-------------------|-------------------|


    W                    W                   W                 
e|-------------------|--11----------------|--L----------------|
B|-------------------|--11----------------|--L----------------|
G|-------------------|--12----------------|--L----------------|
D|-------------------|--10----------------|--L----------------|
A|-------------------|--------------------|-------------------|
E|-------------------|--------------------|-------------------|


                                                 v                 
    H.           E   E      W                    W                 
e|--L------------L------|--------------------|--13----------------|
B|--L------------L------|--11----------------|--13----------------|
G|--L------------L------|--------------------|--15----------------|
D|--L------------L--10--|--------------------|--17----------------|
A|----------------------|--------------------|--------------------|
E|----------------------|--------------------|--------------------|


    W                    H         H           W                 
e|--L----------------|--13------------------|-------------------|
B|--L----------------|------------13--------|--L----------------|
G|--L----------------|----------------------|-------------------|
D|--L----------------|----------------------|-------------------|
A|-------------------|----------------------|-------------------|
E|-------------------|----------------------|-------------------|


     W                   H.            Q         W                 
e|--10----------------|--L-------------------|--------------------|
B|--11----------------|--L------------11h----|--13----------------|
G|--12----------------|--L------------12-----|---L----------------|
D|--10----------------|--L-------------------|--------------------|
A|--------------------|----------------------|--------------------|
E|--------------------|----------------------|--------------------|


                         v                                     
    W                    W                   W                 
e|-------------------|--13----------------|--L----------------|
B|--L----------------|--13----------------|--L----------------|
G|--L----------------|--15----------------|--L----------------|
D|-------------------|--17----------------|--L----------------|
A|-------------------|--------------------|-------------------|
E|-------------------|--------------------|-------------------|


    W                   W                    Q     E  E  Q     Q      
e|-------------------|-------------------|---------------------------|
B|-------------------|-------------------|--15b----L--L--L----13~----|
G|-------------------|-------------------|---------------------------|
D|-------------------|-------------------|---------------------------|
A|-------------------|-------------------|---------------------------|
E|-------------------|-------------------|---------------------------|


                 PM      PM                                       
    H        E   E   E   E      E.    S E      E   E   E   Q      
e|--------------------------|------------------------------------|
B|--L---------------11------|--11h---13--------------------------|
G|--------------12------12--|--------------10g12p--L--10--12~----|
D|--------------------------|------------------------------------|
A|--------------------------|------------------------------------|
E|--------------------------|------------------------------------|


    H.           Q           Q     S S  E   E   S S  Q      
e|--------------------|------------------------------------|
B|--------------------|------------------------------------|
G|--L-----------------|--12g10p----8---10s--L--12---10~----|
D|--------------------|------------------------------------|
A|--------------------|------------------------------------|
E|--------------------|------------------------------------|


    H.           E   S S     Q      S S     E  E  E   Q      
e|-----------------------|----------------------------------|
B|-----------------------|----------------------------------|
G|--L------------8-------|--10h----12---12g10--L--8---------|
D|------------------10---|---------------------------10~----|
A|-----------------------|----------------------------------|
E|-----------------------|----------------------------------|


    H        Q     Q        Q.       Q.      Q        H        E      E   E   E   
e|----------------------|--------------------------|-----------------------------|
B|----------------------|--15b------15------13~----|--L------------------11------|
G|----------------------|--------------------------|--------------10g12------12--|
D|--L--------L\---------|--------------------------|-----------------------------|
A|----------------------|--------------------------|-----------------------------|
E|----------------------|--------------------------|-----------------------------|


     E.    S E      E   E   E   Q        H        Q     Q     
e|------------------------------------|----------------------|
B|--11h---13--------------------------|----------------------|
G|--------------10g12p--L--10--12~----|--L--------L\---------|
D|------------------------------------|----------------------|
A|------------------------------------|----------------------|
E|------------------------------------|----------------------|


        Q     S S  E   E   S S     Q        H        E     E  E   E   
e|---------------------------------------|---------------------------|
B|---------------------------------------|---------------------------|
G|--12g10p----8---10s--L--12---12g10~----|--L--------L--------8------|
D|---------------------------------------|--------------8g10-----10--|
A|---------------------------------------|---------------------------|
E|---------------------------------------|---------------------------|


     Q      S S     E  E  E   Q        H        Q    Q      
e|----------------------------------|----------------------|
B|----------------------------------|----------------------|
G|--10h----12---12g10--L--8---------|----------------------|
D|---------------------------10~----|--L--------L----L\----|
A|----------------------------------|----------------------|
E|----------------------------------|----------------------|


             |----3----|                                               
    H        Q    Q    Q       W                   Q.     E  H         
e|--------------------------|-------------------|---------------------|
B|--------------------------|-------------------|------------3--------|
G|---------------------3----|--2----------------|--L------------------|
D|----------------1---------|-------------------|---------1-----------|
A|-----------3--------------|-------------------|---------------------|
E|--------------------------|-------------------|---------------------|


                                 |----3----|                           
    W                   H        Q    Q    Q       H.           Q      
e|-------------------|--------------------------|---------------------|
B|--L----------------|--L-----------------------|---------------------|
G|-------------------|---------------------3----|--2------------2S----|
D|-------------------|----------------1---------|---------------------|
A|-------------------|-----------3--------------|---------------------|
E|-------------------|--------------------------|---------------------|


     H.           E   E      H        Q     Q     
e|-----------------------|-----------------------|
B|-----------------------|-----------------------|
G|--12------------L------|--11--------L\---------|
D|--10------------L--10--|-----------------------|
A|-----------------------|-----------------------|
E|-----------------------|-----------------------|


    PM   PM  PMPM PM  PM                 
    S  S S   S S  S   S S Q     S  S E   
e|--------------------------------------|
B|------------------------8-------------|
G|------------------------8-------------|
D|--8----8--10-8--8--10--------10p-8----|
A|--------------------------------------|
E|--------------------------------------|


       PM PM  PMPM  PMPM             PM  PM  
    E  S  S   S S   S S   S  S  S  S E   E   
e|------------------------------------------|
B|------------------------------------------|
G|------------------------------------------|
D|--------------8--10-8--10-10p-8----8------|
A|-----8--9--10-------------------10----10--|
E|------------------------------------------|


    PM   PM  PMPM PM  PM                      PM     PM     PM    PM            
    S  S S   S S  S   S S Q     S  S E     E  S  S S S  S S S  S  S S E   S  S  
e|--------------------------------------|--------------------------------------|
B|------------------------8-------------|--------------------------------------|
G|------------------------8-------------|--------------------------------------|
D|--8----8--10-8--8--10--------10p-8----|-----------------------------8--------|
A|--------------------------------------|-----8------8------8----10------10p-8-|
E|--------------------------------------|--------------------------------------|


    PM      PM  PM  PM                        PM PM  PM            PM           
    S  S S  S S S   S S Q     S  S  S S    E  S  S   S S E   S  S  S S E   S S  
e|--------------------------------------|--------------------------------------|
B|----------------------8---------------|--------------------------------------|
G|----------------------8---------------|--------------------------------------|
D|--8------10---8--10--------10p-8------|----------------8--10p-8--------------|
A|---------------------------------10---|-----8--9--10------------10---8--10---|
E|--------------------------------------|--------------------------------------|


     PMPM PM  PM  PM  PM                                          
     S S  S   S S S   S S Q     S  S  S S    H        Q     Q     
e|----------------------------------------|----------------------|
B|------------------------8---------------|----------------------|
G|------------------------8---------------|----------------------|
D|--10-8--8--10---8--10--------10p-8------|--8--------L\---------|
A|-----------------------------------10---|----------------------|
E|----------------------------------------|----------------------|


    H.           E  E     Q.        E  Q.     E     W                  
e|---------------------|-------------------------|--------------------|
B|---------------------|-------------------------|--------------------|
G|---------------------|-------------------------|--------------------|
D|---------------------|-------------------------|--------------------|
A|--8------------L--6--|--8------8g10--8------6--|--------------------|
E|---------------------|-------------------------|--8S----------------|


    H        H           H.           E  E     Q.        E  Q.     E   
e|--------------------|---------------------|-------------------------|
B|--------------------|---------------------|-------------------------|
G|--------------------|---------------------|-------------------------|
D|--------------------|--6------------L--5--|-------------------------|
A|-----------6--------|---------------------|--8------8g10--8------6--|
E|--6-----------------|---------------------|-------------------------|


    H        E    E  E  E        Q    Q       Q       E  E   
e|-------------------------|--------------------------------|
B|-------------------------|--------------------------------|
G|-------------------------|------------------8-------8--8--|
D|-------------------------|----------8----8g10----8g10--8--|
A|-------------------6--8--|--8g10--------------------------|
E|--8--------L--3g8--------|--------------------------------|


     H.            E  E      Q.         E   Q.     E   
e|-----------------------|----------------------------|
B|-----------------------|----------------------------|
G|--10~------------L--8--|--10------10g12--10------8--|
D|-----------------------|----------------------------|
A|-----------------------|----------------------------|
E|-----------------------|----------------------------|


     H         E     E  E   E      E   S S  E     E  Q     Q      
e|-----------------------------|---------------------------------|
B|-----------------------------|---------------------------------|
G|----------------------8------|--10b--L-8--------8--8-----------|
D|--10~--------L--8g10-----10--|-----------10--8g10--8-----------|
A|-----------------------------|--------------------------10\----|
E|-----------------------------|---------------------------------|


      H.           E  E     Q.        E  Q.     E     W                  
e|-----------------------|-------------------------|--------------------|
B|-----------------------|-------------------------|--------------------|
G|-----------------------|-------------------------|--------------------|
D|--3g6------------L--5--|-------------------------|--------------------|
A|-----------------------|--8------8g10--8------6--|--------------------|
E|-----------------------|-------------------------|--8b----------------|


    W                   W                   H.           Q     
e|-------------------|-------------------|--------------------|
B|-------------------|-------------------|--------------------|
G|-------------------|-------------------|--------------------|
D|-------------------|-------------------|--------------------|
A|-------------------|-------------------|--------------------|
E|--L----------------|--L----------------|--L-----------------|


     Q.       Q.      Q        H        E      E   E   E   
e|--------------------------|-----------------------------|
B|--15b------15------13~----|--L------------------11------|
G|--------------------------|--------------10g12------12--|
D|--------------------------|-----------------------------|
A|--------------------------|-----------------------------|
E|--------------------------|-----------------------------|


     E.    S E      E   E   E   Q        H.           Q     
e|------------------------------------|--------------------|
B|--11h---13--------------------------|--------------------|
G|--------------10g12p--L--10--12~----|--L-----------------|
D|------------------------------------|--------------------|
A|------------------------------------|--------------------|
E|------------------------------------|--------------------|


        Q     S S  E   E   S S     Q        H        E     E  E   E   
e|---------------------------------------|---------------------------|
B|---------------------------------------|---------------------------|
G|--12g10p----8---10s--L--12---12g10~----|--L--------L--------8------|
D|---------------------------------------|--------------8g10-----10--|
A|---------------------------------------|---------------------------|
E|---------------------------------------|---------------------------|


     Q      S S     E  E  E   Q        Q    Q     H         
e|----------------------------------|----------------------|
B|----------------------------------|----------------------|
G|--10h----12---12g10--L--8---------|----------------------|
D|---------------------------10~----|--L----L\-------------|
A|----------------------------------|----------------------|
E|----------------------------------|----------------------|


                                               PM      PM  
     Q.       Q.      Q        H        E      E   E   E   
e|--------------------------|-----------------------------|
B|--15b------15------13~----|--L------------------11------|
G|--------------------------|--------------10g12------12--|
D|--------------------------|-----------------------------|
A|--------------------------|-----------------------------|
E|--------------------------|-----------------------------|


     E.    S E      E   E   E   Q        W                 
e|------------------------------------|-------------------|
B|--11h---13--------------------------|-------------------|
G|--------------10g12p--L--10--12~----|--L----------------|
D|------------------------------------|-------------------|
A|------------------------------------|-------------------|
E|------------------------------------|-------------------|


        Q     S S  E   E   S S     Q        H        E   E  E   E   
e|---------------------------------------|-------------------------|
B|---------------------------------------|-------------------------|
G|--12g10p----8---10s--L--12---12g10~----|--L--------L------8------|
D|---------------------------------------|--------------10-----10--|
A|---------------------------------------|-------------------------|
E|---------------------------------------|-------------------------|


     Q      S S     E  E  E   Q        H.           Q      
e|----------------------------------|---------------------|
B|----------------------------------|---------------------|
G|--10h----12---12g10--L--8---------|---------------------|
D|---------------------------10~----|--L------------L\----|
A|----------------------------------|---------------------|
E|----------------------------------|---------------------|


             |----3----|                                               
    H        Q    Q    Q       W                   Q.     E  H         
e|--------------------------|-------------------|---------------------|
B|--------------------------|-------------------|------------3--------|
G|---------------------3----|--2----------------|--L------------------|
D|----------------1---------|-------------------|---------1-----------|
A|-----------3--------------|-------------------|---------------------|
E|--------------------------|-------------------|---------------------|


                                 |----3----|                           
    W                   H        Q    Q    Q       H.           Q      
e|-------------------|--------------------------|---------------------|
B|--L----------------|--L-----------------------|---------------------|
G|-------------------|---------------------3----|--2------------2S----|
D|-------------------|----------------1---------|---------------------|
A|-------------------|-----------3--------------|---------------------|
E|-------------------|--------------------------|---------------------|


                                                Delay                         
                                                PM    PM PM  PM               
     W                   Q    Q     H           S     S  S   S Q    H         
e|--------------------|----------------------|-------------------------------|
B|--------------------|----------------------|-------------------------------|
G|--12----------------|--L----L\-------------|-------------------------------|
D|--10----------------|--L----L\-------------|--8-----8--9--10---------------|
A|--------------------|----------------------|-------------------------------|
E|--------------------|----------------------|-------------------------------|


                              PM PM PM  PM               
    E   E    Q    H           S  S  S   S Q    H         
e|-------------------------|----------------------------|
B|-------------------------|----------------------------|
G|-----10s--12----L--------|----------------------------|
D|-------------------------|--8--8--8--10---------------|
A|-------------------------|----------------------------|
E|-------------------------|----------------------------|


        PM     PM                 PM PM PM  PM            PM PM  
    E   S S S  S S S  H           S  S  S   S Q    Q.     S  S   
e|-----------------------------|--------------------------------|
B|-----------------------------|--------------------------------|
G|-----15-----14-----12--------|--------------------------------|
D|-----------------------------|--8--8--9--10-------------------|
A|-----------------------------|--------------------------8--9--|
E|-----------------------------|--------------------------------|


                           PM PM PM  PM   PM PM PM  PM   PM  PM    
     H.           Q        S  S  S   S E  S  S  S   S E  S   S E   
e|----------------------|-----------------------------------------|
B|----------------------|-----------------------------------------|
G|----------------------|-----------------------------------------|
D|----------------------|--8--8--9--10----8--8--9--10----8--10----|
A|--10------------L\----|-----------------------------------------|
E|----------------------|-----------------------------------------|


    PM PM PM  PM   PM PM PM  PM   PM  PM      PM PM PM  PM                   
    S  S  S   S E  S  S  S   S E  S   S E     S  S  S   S Q.      E    Q     
e|-----------------------------------------|--------------------------------|
B|-----------------------------------------|--------------------------------|
G|-----------------------------------------|---------------------10pb--L----|
D|--8--8--9--10----8--8--9--10----8--10----|--8--8--9--10-------------------|
A|-----------------------------------------|--------------------------------|
E|-----------------------------------------|--------------------------------|


                        PM PM PM  PM                   
    W                   S  S  S   S Q    Q.     S  S   
e|-------------------|--------------------------------|
B|-------------------|--------------------------------|
G|--L----------------|--------------------------7h-8h-|
D|-------------------|--8--8--9--10-------------------|
A|-------------------|--------------------------------|
E|-------------------|--------------------------------|


    S  S  S  S  S  S  S  S  S  S  S  S  S  S  S  S  
e|-------------------------------------------------|
B|-------------------------------------------------|
G|--7h-8p-7h-8p-7h-8p-7h-8p-7h-8p-7h-8p-7h-8p-7h-8-|
D|-------------------------------------------------|
A|-------------------------------------------------|
E|-------------------------------------------------|


    PM PM PM  PM                                                
    S  S  S   S Q    Q.         E     E   E   E  E  E  E  Q     
e|---------------------------------|---------------------------|
B|--------------------------11g13--|--L--11s--L--8--L--6--L----|
G|---------------------------------|---------------------------|
D|--8--8--9--10--------------------|---------------------------|
A|---------------------------------|---------------------------|
E|---------------------------------|---------------------------|


    PM PM PM  PM   PM PM PM  PM   PM  PM    
    S  S  S   S E  S  S  S   S E  S   S E   
e|-----------------------------------------|
B|-----------------------------------------|
G|-----------------------------------------|
D|--8--8--9--10----8--8--9--10----8--10----|
A|-----------------------------------------|
E|-----------------------------------------|


    PM PM PM  PM   PM PM PM  PM   PM  PM                        
    S  S  S   S E  S  S  S   S E  S   S E     W                 
e|-----------------------------------------|--8----------------|
B|-----------------------------------------|--8----------------|
G|-----------------------------------------|-------------------|
D|--8--8--9--10----8--8--9--10----8--10----|-------------------|
A|-----------------------------------------|-------------------|
E|-----------------------------------------|-------------------|


                     PM                                              
    H.           E   E     W                   H        E  E  E  E   
e|--L------------L------|-------------------|-----------------------|
B|--L------------L------|--8----------------|--L--------8-----6-----|
G|------------------10--|-------------------|-----------5-----5-----|
D|----------------------|-------------------|-----------------------|
A|----------------------|-------------------|-----------------------|
E|----------------------|-------------------|-----------------------|


    W                    W                    H         H          
e|--------------------|--------------------|----------------------|
B|--------------------|--------------------|----------------------|
G|--8~----------------|--7~----------------|--5~--------3~--------|
D|--------------------|--------------------|----------------------|
A|--------------------|--------------------|----------------------|
E|--------------------|--------------------|----------------------|


    W                   E   E  Q    H         
e|-------------------|--8\-------------------|
B|-------------------|--8\-------------------|
G|--3----------------|-----------------------|
D|--5----------------|-----------------------|
A|-------------------|-----------------------|
E|-------------------|-----------------------|


     E.  S  S S E  E   S  S  S  S  E     E   E  Q    H         
e|------------------------------------|--8\-------------------|
B|------------------------------------|--8\-------------------|
G|-------8------------10p-8-----------|-----------------------|
D|--10-----10---------------10p-8-----|-----------------------|
A|--------------------------------10--|-----------------------|
E|------------------------------------|-----------------------|


    PM  PMPM  PM                                            <                  
    S   S S   S Q     Q    Q        E   E  Q    H           H        H         
e|-------------------------------|--8\-------------------|--------------------|
B|-------------------------------|--8\-------------------|--4--------4--------|
G|--------------8~----L----------|-----------------------|--3--------2--------|
D|--------8--10------------8\----|-----------------------|--------------------|
A|--8--10------------------------|-----------------------|--------------------|
E|-------------------------------|-----------------------|--------------------|


                                      PM   PMPM  PM    
    H        H           H        E   S S  S S   S  S  
e|--------------------|-------------------------------|
B|--8--------6--------|--4----------------------------|
G|--8--------7--------|--3-------------------8--------|
D|--8--------8--------|--5-----------10---10----10-10-|
A|--------------------|-------------------------------|
E|--------------------|-------------------------------|


     E.   S Q     E.   S Q       E  S S S S S S    E.   S Q     
e|---8----8-------8----8------|-----6-----6--------8----8------|
B|--11---11------10----8------|-----6-----6--------8----8------|
G|---8----8-------8----8------|-----------------8g10---10------|
D|--10---10------10---10------|--------------------------------|
A|----------------------------|--------------------------------|
E|----------------------------|--------------------------------|


     E.   S Q     E  S  S Q       E  S S  S  S  S S Q    S S E   
e|---8----8-------8-----8------|--x--8--------------------------|
B|--11---11------10-----8------|--x--8---10--------------8------|
G|---8----8-------8-----8------|--x------10p-8-----------8------|
D|--10---10------10----10------|--x------------10---------------|
A|-----------------------------|--------------------------------|
E|-----------------------------|--------------------------------|


     E.   S Q     E  S  S Q       E   S S  E   S S  S  S E   S  S E   
e|---8----8-------8-----8------|-------------------10-10----10-10----|
B|--11---11------10-----8------|-----11---10--10----8--8-----8--8----|
G|---8----8-------8-----8------|------8----8---8----8--8-----8--8----|
D|--10---10------10----10------|-----10---10--10---------------------|
A|-----------------------------|-------------------------------------|
E|-----------------------------|-------------------------------------|


     E.   S Q    E.  T  T  Q       E.  S Q    E  S S  S  S  E   
e|---8----8------6--------------|------------------------------|
B|---8----8------6--------------|------------------------------|
G|---8----8----------8p-5s-3----|--8---8-L----x--8-------------|
D|--10---10---------------------|--8---8-L----x--8---10p-8-----|
A|------------------------------|--------------------------10--|
E|------------------------------|------------------------------|


              PM                                 PM                       
    E.   S E  S  S  S  S  S S E  E     E.   S E  S  S  S  S S S  S S  E   
e|----------------------------------|------------------------------------|
B|----------------------------------|-----------------10b-L-L-8-10-8-----|
G|----------------------------8-----|-----------------10b-L-L-8-10-8-----|
D|------------8----10p-8------8-----|------------x-------------------10--|
A|--8---10---------------10---------|--8---10----------------------------|
E|----------------------------------|------------------------------------|


              PM                                     PM  PM    PM          
    E.   S E  S  S  S S S S  S  S  S S    E.   S E   S S S  S  S S S  E.   
e|-------------------------------------|----------------------------------|
B|-------------------------------------|----------------------------------|
G|-------------------------------------|---------------------------8------|
D|------------8----10---8---10p-8------|-----------------8----10-----10---|
A|--8---10------------------------10---|--8---10----10--------------------|
E|-------------------------------------|----------------------------------|


    E.   S Q    S S  S S S  E.     S   S  E   S E.  E   E  E   S   S  
e|------------------------------|------------------------------------|
B|------------------------------|------------10-8--------------------|
G|-----------------------8------|------------10-8----------8--10s-12-|
D|--------------8---10-----10---|--8h-10-10---------8--10------------|
A|--8---10----------------------|------------------------------------|
E|------------------------------|------------------------------------|


     E.   S  Q     E  E   E  E   
e|------------------------------|
B|--11------10-----9------8-----|
G|-------12-------12-----11-----|
D|------------------------------|
A|------------------------------|
E|------------------------------|


     S  S  S  S  S  S  S  S  S  S  S  S  S  S  S  S  
e|--------------------------------------------------|
B|--13-13-13-13-13-13-13-13-13-13-13-13-13-13-13-13-|
G|--15-15-15-15-15-15-15-15-14-14-14-14-14-14-14-14-|
D|--------------------------------------------------|
A|--------------------------------------------------|
E|--------------------------------------------------|


     S  S  S  S  S  S  S  S  S  S  S  S  S  S  S  S  
e|--------------------------------------------------|
B|--16-16-16-16-16-16-16-16-16-16-16-16-16-16-16-16-|
G|--17-17-17-17-17-17-17-17-17-17-17-17-17-17-17-17-|
D|--------------------------------------------------|
A|--------------------------------------------------|
E|--------------------------------------------------|


     S  S  S  S  S  S  S  S  S  S  S  S  S  S  S  S  
e|--------------------------------------------------|
B|--15-15-15-15-15-15-15-15-15-15-15-15-15-15-15-15-|
G|--15-15-15-15-15-15-15-15-15-15-15-15-15-15-15-15-|
D|--------------------------------------------------|
A|--------------------------------------------------|
E|--------------------------------------------------|


     S  S  S  S  S  S  S  S  S  S  S  S  S  S  S  S  
e|--------------------------------------------------|
B|--16-16-16-16-16-16-16-16-16-16-16-16-16-16-16-16-|
G|--17-17-17-17-17-17-17-17-17-17-17-17-17-17-17-17-|
D|--------------------------------------------------|
A|--------------------------------------------------|
E|--------------------------------------------------|


     S  S  S  S  S  S  S  S  S  S  S  S  S  S  S  S  
e|--------------------------------------------------|
B|--15-15-15-15-15-15-15-15-15-15-15-15-15-15-15-15-|
G|--15-15-15-15-15-15-15-15-15-15-15-15-15-15-15-15-|
D|--------------------------------------------------|
A|--------------------------------------------------|
E|--------------------------------------------------|


     S  S  S  S  S  S  S  S  S  S  S  S  S  S  S  S  
e|--------------------------------------------------|
B|--16-16-16-16-16-16-16-16-16-16-16-16-16-16-16-16-|
G|--17-17-17-17-17-17-17-17-17-17-17-17-17-17-17-17-|
D|--------------------------------------------------|
A|--------------------------------------------------|
E|--------------------------------------------------|


     S  S  S  S  S  S  S  S  S  S  S  S  S  S  S  S  
e|--------------------------------------------------|
B|--15-15-15-15-15-15-15-15-15-15-15-15-15-15-15-15-|
G|--15-15-15-15-15-15-15-15-15-15-15-15-15-15-15-15-|
D|--------------------------------------------------|
A|--------------------------------------------------|
E|--------------------------------------------------|


     S  S  S  S  S  S  S  S  S  S  S  S  S  S  S  S  
e|--------------------------------------------------|
B|--16-16-16-16-16-16-16-16-16-16-16-16-16-16-16-16-|
G|--17-17-17-17-17-17-17-17-17-17-17-17-17-17-17-17-|
D|--------------------------------------------------|
A|--------------------------------------------------|
E|--------------------------------------------------|


     S  S  S  S  S  S  S  S  Q        E   E      H          Q.       S   S  
e|-------------------------------------------|-------------11b-------------|
B|--15-15-15-15-15-15-15-15-15\----------11--|--13~-----------------13p-11-|
G|--15-15-15-15-15-15-15-15-15\----3g12------|-----------------------------|
D|-------------------------------------------|-----------------------------|
A|-------------------------------------------|-----------------------------|
E|-------------------------------------------|-----------------------------|


     H.             S  S  S  S     Q        E  E   Q     E.   S  
e|-----------------------------|------------------------------8-|
B|--13~------------11-13-11----|--11----------------------------|
G|--------------------------12-|--------12g10--8~--L----10b-----|
D|-----------------------------|--------------------------------|
A|-----------------------------|--------------------------------|
E|-----------------------------|--------------------------------|


     S  S  S S  S   S  S  S S S  S S  E  E    
e|-------------------------------------------|
B|--11p-8----8-------------------------------|
G|--------10---10b-10p-8----8-8----8---------|
D|-----------------------10-----10---10--8\--|
A|-------------------------------------------|
E|-------------------------------------------|


    E     E  S  S S  S S  S  S S E.  S    E.  S Q     E  E  S S S S  
e|-------------------------------------|----------------------------|
B|-------------------------------------|----------------------------|
G|-------------------------------------|----------------------------|
D|--L--------8-10-8----8---------------|----------------------------|
A|-----6g10---------10---10s-8-6-8---6-|--8---6-------------6-8-6---|
E|-------------------------------------|--------8~----6--8--------8-|


    S S S S S   S S  S   T T T T  S  S S  S   S  S  
e|-------------------------------------------------|
B|----------------------------------------------11-|
G|----------------8-10b--L-L-L-8-10----8-10s-12----|
D|--------8-9s-10-------------------10-------------|
A|--6-8-9------------------------------------------|
E|-------------------------------------------------|


     S  S   S  S  Q     S  S  E   E.    S     E   E  E.       S  E   E   E.   S  
e|------------11-13b----L-11--------------|------11--L\-------------------------|
B|-----11s-13----------------13--13~---11-|--13-----------------16--18b--L---16-|
G|--12------------------------------------|---------------12g17-----------------|
D|----------------------------------------|-------------------------------------|
A|----------------------------------------|-------------------------------------|
E|----------------------------------------|-------------------------------------|


                          |---3---|        |---3--|  
     Q.       S  S  S  S  S   S   S  S  S  S   S  S  
e|--------------------15----------------------------|
B|--18~------15-16-18----18p-16p-15----15-16p-15----|
G|----------------------------------17-----------17-|
D|--------------------------------------------------|
A|--------------------------------------------------|
E|--------------------------------------------------|


     S   S  S  S  E   E   S    S  S   S  S  S  S  S  
e|--------------------------------------------------|
B|--15s-13----13--L---------------------------------|
G|---------15--------15~----------------15----------|
D|-------------------------------15s-17----17-16-15-|
A|--------------------------8g13--------------------|
E|--------------------------------------------------|


     S  S  S  S  S  S  S  S  T   T S E   S  S  E    
e|-------------------------------------------------|
B|-------------------------------------------------|
G|-----15------------------------------------------|
D|--------17-16-15----15----15s-13-L-L-------------|
A|--18-------------18----18-------------15-13-15~--|
E|-------------------------------------------------|


    E   E   E.   S  S  S  E   Q        E  S S E     E  E   S  S E  E   
e|----------------------------------|---------------------------------|
B|----------------------------------|---------------------------------|
G|----------------------------------|---------------------------------|
D|--------------13-----------10\----|------------------8---L-10-L--8--|
A|--L--13--15------15-13-10--10\----|--6--L-8-L--8g10-----------------|
E|----------------------------------|---------------------------------|


    E  S  S E   E    S    S  E  E   S S     Q    E   E  Q     S S  E   
e|--------------------------------------|-----------------------------|
B|--------------------------------------|--------8------8-------------|
G|--8--L-10-L--10b--10pbr-8-----8-------|--------8------8-------------|
D|--------------------------10-----10-8-|--10-------10-------10-8-10--|
A|--------------------------------------|-----------------------------|
E|--------------------------------------|-----------------------------|


     Q.       Q.      Q        H        E      E   E   E   
e|--------------------------|-----------------------------|
B|--15b------15------13~----|--L--------L---------11------|
G|--------------------------|--------------10g12------12--|
D|--------------------------|-----------------------------|
A|--------------------------|-----------------------------|
E|--------------------------|-----------------------------|


     E.   S E      E  E   E   Q        W                    H.            E  E   
e|----------------------------------|-------------------|-----------------------|
B|--11---13-L-----------------------|-------------------|-----------------------|
G|-------------10g12--L--10--12~----|--L----------------|--10~------------L--8--|
D|----------------------------------|-------------------|-----------------------|
A|----------------------------------|-------------------|-----------------------|
E|----------------------------------|-------------------|-----------------------|


     Q.         E   E  Q    E      H         E     E  E   E   
e|-----------------------------|-----------------------------|
B|-----------------------------|-----------------------------|
G|--10------10g12--10--L----8--|-----------------------------|
D|-----------------------------|--10~--------L--------8------|
A|-----------------------------|----------------8g10-----10--|
E|-----------------------------|-----------------------------|


    Q       E  E     H            Q.       Q.      Q      
e|----------------------------|--------------------------|
B|--8-------------------------|--15b------15------13~----|
G|--8-------------------------|--------------------------|
D|----------------------------|--------------------------|
A|-------10g8--6--8g10--------|--------------------------|
E|----------------------------|--------------------------|


    H        E      E   E   E      E.   S E      E  E   E   Q      
e|-----------------------------|----------------------------------|
B|--L--------L---------11------|--11---13-L-----------------------|
G|--------------10g12------12--|-------------10g12--L--10--12~----|
D|-----------------------------|----------------------------------|
A|-----------------------------|----------------------------------|
E|-----------------------------|----------------------------------|


    W                    H.            E  E      Q.         E   E  Q    E   
e|-------------------|-----------------------|-----------------------------|
B|-------------------|-----------------------|-----------------------------|
G|--L----------------|--10~------------L--8--|--10------10g12--10--L----8--|
D|-------------------|-----------------------|-----------------------------|
A|-------------------|-----------------------|-----------------------------|
E|-------------------|-----------------------|-----------------------------|


     W                    H        H             Q.       Q.      Q      
e|---------------------|---------------------|--------------------------|
B|---------------------|---------------------|--15b-------L------13~----|
G|---------------------|---------------------|--------------------------|
D|--10~----------------|--L--------L\--------|--------------------------|
A|---------------------|---------------------|--------------------------|
E|---------------------|---------------------|--------------------------|


    H        E      E   E   E      E.    S E      E   E   E   Q      
e|-----------------------------|------------------------------------|
B|--L------------------11------|--11h---13--------------------------|
G|--------------10g12------12--|--------------10g12p--L--10--12~----|
D|-----------------------------|------------------------------------|
A|-----------------------------|------------------------------------|
E|-----------------------------|------------------------------------|


    H.           Q           Q     S S  E   E   S S     Q      
e|--------------------|---------------------------------------|
B|--------------------|---------------------------------------|
G|--L-----------------|--12g10p----8---10s--L--12---12g10~----|
D|--------------------|---------------------------------------|
A|--------------------|---------------------------------------|
E|--------------------|---------------------------------------|


    H        E     E  E   E      Q      S S     E  E  E   Q      
e|---------------------------|----------------------------------|
B|---------------------------|----------------------------------|
G|--L--------L--------8------|--10h----12---12g10--L--8---------|
D|--------------8g10-----10--|---------------------------10~----|
A|---------------------------|----------------------------------|
E|---------------------------|----------------------------------|

                                                                      PM      PM  
    Q    Q     H            Q.       Q.      Q        H        E      E   E   E   
e|----------------------|--------------------------|-----------------------------|
B|----------------------|--15b------15------13~----|--L------------------11------|
G|----------------------|--------------------------|--------------10g12------12--|
D|--L----L\-------------|--------------------------|-----------------------------|
A|----------------------|--------------------------|-----------------------------|
E|----------------------|--------------------------|-----------------------------|


     E.    S E      E   E   E   Q        W                 
e|------------------------------------|-------------------|
B|--11h---13--------------------------|-------------------|
G|--------------10g12p--L--10--12~----|--L----------------|
D|------------------------------------|-------------------|
A|------------------------------------|-------------------|
E|------------------------------------|-------------------|


        Q     S S  E   E   S S     Q        H        E   E  E   E   
e|---------------------------------------|-------------------------|
B|---------------------------------------|-------------------------|
G|--12g10p----8---10s--L--12---12g10~----|--L--------L------8------|
D|---------------------------------------|--------------10-----10--|
A|---------------------------------------|-------------------------|
E|---------------------------------------|-------------------------|


     Q      S S     E  E  E   Q       W                   W                 
e|---------------------------------|-------------------|-------------------|
B|---------------------------------|-------------------|-------------------|
G|--10h----12---12g10--L--8--------|-------------------|-------------------|
D|---------------------------10----|--L----------------|--L----------------|
A|---------------------------------|-------------------|-------------------|
E|---------------------------------|-------------------|-------------------|


    W                   W                   W                   W                 
e|-------------------|-------------------|-------------------|-------------------|
B|-------------------|-------------------|-------------------|-------------------|
G|-------------------|-------------------|-------------------|-------------------|
D|--L----------------|--L----------------|--L----------------|--L----------------|
A|-------------------|-------------------|-------------------|-------------------|
E|-------------------|-------------------|-------------------|-------------------|


    W                   W                  
e|-------------------|-------------------||
B|-------------------|-------------------||
G|-------------------|-------------------||
D|--L----------------|--L----------------||
A|-------------------|-------------------||
E|-------------------|-------------------||

            
            
Suggest correction
Creating personal tab
Creating personal tab
You can edit any tab online and save it as your Personal.

You can edit, replace or remove any tab part or add personal notes – all changes will be seen only by you.

Personal tabs can be accessed anytime from any device, even offline.
Learn more »
Give kudos to tab author, rate the tab!
1 2 3 4 5
comments
print report bad tab
1 comment total.
0 reply
bschath 10 Sep 17, 2017 09:47 PM

Im unfamiliar with some of these symbols

is there a key? such as what 'L' and 'W' mean?

guest
You may want to rate the tab now too:
select rating
Wanna post a correction for this tab? Suggest correction