Oops, an error
Loading. Please wait.

Rainwalk tab

by Tauk
139 views 3 this week
no commentswrite comment
1 2 3 4 5
3 more votes to show rating
add to favorites
×
Save as Personal and add changes to this tab that will be seen only by you. Learn more ›
×
You can save this tab as Personal to edit and correct it or add notes. All changes will be seen only by you. Learn more »
launch autoscroll
font size
0
reset
how to read this tab
guitar tuner
edit
Autoscroll
slow
fast
+/-
esc
set tempo
stop
Author
Difficulty
[Intro]
E|---7---9---------------------------------------6----------------------------------------------------|
B|---------------9--11---7---------------7-------------------7---------------------------7------------|
G|-------------------------------6---8-------8-----------8-----------6---6---8------------------------|
D|-------------------------------------------------------------------------------------------8-------9|
A|----------------------------------------------------------------------------------------------------|
E|----------------------------------------------------------------------------------------------------|

E|----------------------------------------------------------------------------------------------------|
B|----------------------------------------------------------------------------------------------------|
G|---------------------------------------------------------------6-------4---6---4--------------------|
D|---------------------------------------4------------------------------------------------------------|
A|-------9--11---------------------------------------------------------------------------4-------2---4|
E|-----------------------4---4---4---------------4---4---4--------------------------------------------|

E|----|
B|----|
G|----|
D|----|
A|---2|
E|----|

E|---7---9---------------------------------------6-------6---7---6------------------------------------|
B|---------------9--11---7---------------7-------------------------------7---9-------7---------------7|
G|-------------------------------6---8-------8-------------------------------------------6---4--------|
D|----------------------------------------------------------------------------------------------------|
A|----------------------------------------------------------------------------------------------------|
E|----------------------------------------------------------------------------------------------------|

E|--------------------------------|
B|--------------------------------|
G|---------------8----------------|
D|---8-------9-----------8-------6|
A|--------------------------------|
E|--------------------------------|

[Verse 1]
E|--16--16------16--16------16--16------14--11------------------16--16------14--11--------------------|
B|----------------------------------------------14--12------------------------------14--14--12--------|
G|------------------------------------------------------13--------------------------------------13----|
D|----------------------------------------------------------------------------------------------------|
A|----------------------------------------------------------------------------------------------------|
E|----------------------------------------------------------------------------------------------------|

E|--16--16--------------------------------------------------------------------------------------------|
B|---------------7-----------------------9---9---9---9---7-------7-------------------------------7----|
G|-------------------8---6-------------------------------------------8---6---------------6---8--------|
D|---------------------------9---6-------------------------------------------9---6--------------------|
A|----------------------------------------------------------------------------------------------------|
E|----------------------------------------------------------------------------------------------------|

E|----------------|
B|-----------7----|
G|---6---8--------|
D|----------------|
A|----------------|
E|----------------|

[Bridge]
E|-------4-------7---6|
B|---4-------5--------|
G|--------------------|
D|--------------------|
A|--------------------|
E|--------------------| (x8)

[Verse 2]
E|----------------------------------------------------------------------------------------------------|
B|---9-------7-----------------------9-------7--------------------------------------------------------|
G|-------------------9-------8-----------------------9-------8-------6---6---9---6---8-------6---6---9|
D|----------------------------------------------------------------------------------------------------|
A|----------------------------------------------------------------------------------------------------|
E|----------------------------------------------------------------------------------------------------|

E|----------------------------------------------------------------------------------------------------|
B|-----------------------------------------------------------------------7---9------------------------|
G|---6---8-------6---6---9---6---8-------------------6---8-------6-------------------8----------------|
D|---------------------------------------6---8---9-------------------------------------------6---8---9|
A|----------------------------------------------------------------------------------------------------|
E|----------------------------------------------------------------------------------------------------|

E|----------------------------------------------------------------------------------------------------|
B|-----------------------9------12---9--11-------9-----------------------------------------------7---9|
G|---6---8-------6--------------------------11-------8---6-------------------6---8-------6------------|
D|---------------------------------------------------------------6---8---9----------------------------|
A|----------------------------------------------------------------------------------------------------|
E|----------------------------------------------------------------------------------------------------|

E|------------------------------------------------------------------------------------|
B|-----------------------------------------------9------12---9--11-------9------------|
G|-------8-------------------6---8-------6--------------------------11-------8---6----|
D|---------------6---8---9------------------------------------------------------------|
A|------------------------------------------------------------------------------------|
E|------------------------------------------------------------------------------------|

E|----------------------------------------------------------------------------------------------------|
B|----------------------12---9--11-------9----------------------------------12---9--11-------9--------|
G|----------------------------------11-------8---6--------------------------------------11-------8---6|
D|----------------------------------------------------------------------------------------------------|
A|----------------------------------------------------------------------------------------------------|
E|---4---4---4---4---------------------------------------4---4---4---4--------------------------------|

E|----------------------------------------------------------------------------------------------------|
B|--------------------------17--14--16------14----------------------------------17--14--16------14----|
G|--------------------------------------16------13--11--------------------------------------16------13|
D|----------------------------------------------------------------------------------------------------|
A|----------------------------------------------------------------------------------------------------|
E|-------4---4---4---4---------------------------------------4---4---4---4----------------------------|

E|----------------------------------------------------------------------------------------------------|
B|------------------------------12---9--11-------9----------------------------------12---9--11-------9|
G|--11-------------------6------------------11-------8---6-------------------6------------------11----|
D|-----------6---8---9-------------------------------------------6---8---9----------------------------|
A|----------------------------------------------------------------------------------------------------|
E|----------------------------------------------------------------------------------------------------|

E|----------------------------------------------------------------------------------------------------|
B|----------------------------------17--14--16------14----------------------------------17--14--16----|
G|---8---6--------------------------------------16------13--11--------------------------------------16|
D|--------------------------11--------------------------------------------------11--------------------|
A|--------------11--13--14------------------------------------------11--13--14------------------------|
E|----------------------------------------------------------------------------------------------------|

E|----------------------------------------|
B|--14--------------12--------------------|
G|------13--11----------13----------13--11|
D|--------------13--------------13--------|
A|----------------------------------------|
E|----------------------------------------|

[Verse 3]
E|---7---9-------7------11-------------------------------------------9--11----------------------------|
B|-------------------------------7---7---7---7---9-------------------------------9----------11---9----|
G|-------------------------------------------------------8---6-----------------------8---6------------|
D|----------------------------------------------------------------------------------------------------|
A|----------------------------------------------------------------------------------------------------|
E|----------------------------------------------------------------------------------------------------|

E|-------------------------------------------------------7---9-------7------11------------------------|
B|---9--11--12--11---9-------9-------------------------------------------------------7---7---7---7---9|
G|----------------------11-----------8---6-------6---8------------------------------------------------|
D|-------------------------------------------9--------------------------------------------------------|
A|----------------------------------------------------------------------------------------------------|
E|----------------------------------------------------------------------------------------------------|

E|-------------------9--11----------------------------|
B|-------------------------------9-----------9--11----|
G|-------8---6-----------------------8---6------------|
D|----------------------------------------------------|
A|----------------------------------------------------|
E|----------------------------------------------------|

[Bridge]
E|-------------------------------------------6---7---6--------|
B|-----------------------------------6------------------------|
G|-----------8---9---8-------7-------6------------------------|
D|---6--------------------------------------------------------|
A|---6-------------------------------------------------------6|
E|---4--------------------------------------------------------|

[Verse 4]
E|----------------------------|
B|----------------------------|
G|----------------------------|
D|---------------6------------|
A|-------------------6---4---6|
E|---4---4--------------------| (x16)

E|----------------------------------------|
B|----------------------------------------|
G|----------------------------------------|
D|---7------------------------------------|
A|---7------------------------------------|
E|---5-------5---7---9--11---5---7---5---2|

E|----------------------------|
B|----------------------------|
G|----------------------------|
D|---------------6------------|
A|-------------------6---4---6|
E|---4---4--------------------| (x16)

E|-----------------------6----------------------------------------------------------6----------------|
B|---------------------------------------------------------------------------------------------------|
G|---------------6---8--------------------------6---8-----------------------6---8--------------------|
D|---6---8---9----------------------6---8---9-------------------6---8---9-------------------6---8---9|
A|------------------------------------------------------6--------------------------------------------|
E|---------------------------------------------------------------------------------------------------|

E|----------------|
B|----------------|
G|---6---9---8----|
D|----------------|
A|----------------|
E|----------------| (x3)

E|-----------------------6-------------------------------------------------------6----|
B|------------------------------------------------------------------------------------|
G|---------------6---8-----------------------6---8-----------------------6---8--------|
D|---6---8---9-------------------6---8---9-------------------6---8---9----------------|
A|---------------------------------------------------6--------------------------------|
E|------------------------------------------------------------------------------------|

E|----------------------------------------|
B|----------------------------------------|
G|----------------------------------------|
D|---7------------------------------------|
A|---7------------------------------------|
E|---5-------5---7---9--11---5---7---5---2|

[Verse 5]
E|----------------------------------------------------------------------------------------------------|
B|----------------------------------------------------------------------------------------------------|
G|----------------------------------------------------------------------------------------------------|
D|----------------------------------------------------------------------------------------------------|
A|-------------------6---------------------------6---------------------------6------------------------|
E|---4---4-------4-------7-------4---4-------4-------7-------4---4-------4-------7-------4---4-------4|

E|----------------------------------------------------------------------------------------------------|
B|----------------------------------------------------------------------------------------------------|
G|----------------------------------------------------------------------------------------------------|
D|----------------------------------------------------------------------------------------------------|
A|---6---------------------------6---------------------------6---------------------------6-------6---5|
E|-------6-------4---4-------4-------7-------4---4-------4-------7-------4---4-------4-------7--------|

E|----------------------------------------------------------------------------------------------------|
B|----------------------------------------------------------------------------------------------------|
G|-------------------------------------------------------8---------------------------------------7---8|
D|-----------6---6-------6---9---8-------6---6-------6-------9-------6---6-------6---9---8------------|
A|---6------------------------------------------------------------------------------------------------|
E|----------------------------------------------------------------------------------------------------|

E|----------------------------------------------------------------------------------------------------|
B|----------------------------------------------------------------------------------------------------|
G|---7---8---------------------------8-------------------------------------------------------8---7---8|
D|-----------9-------6---6-------6-------9-------6---6-------6---9---8-------6---6-------6------------|
A|----------------------------------------------------------------------------------------------------|
E|----------------------------------------------------------------------------------------------------|

E|----------------------------------------------------------------------------------------------------|
B|---7------------------------------------------------------------------------------------------------|
G|-----------6-------6---9---8-------6-------6---9---8-------6-------6---9---8-------6-------6---9---8|
D|----------------------------------------------------------------------------------------------------|
A|----------------------------------------------------------------------------------------------------|
E|----------------------------------------------------------------------------------------------------|

E|----------------------------------------------------------------------------|
B|-------------------9---8-------------------9---8-------------------9-------8|
G|-------9-------9---------------9-------9---------------9-------9-------9----|
D|----------------------------------------------------------------------------|
A|----------------------------------------------------------------------------|
E|----------------------------------------------------------------------------|

[Verse 6]
E|----------------------------------------------------------------------------------------------------|
B|-----------------------------------7---9-----------------------------------------------9------12---9|
G|---------------6---8-------6-------------------8-------------------6---8-------6--------------------|
D|---6---8---9-------------------------------------------6---8---9------------------------------------|
A|----------------------------------------------------------------------------------------------------|
E|----------------------------------------------------------------------------------------------------|

E|----------------------------------------------------------------------------------------------------|
B|--11-------9-----------------------------------------------7-------7---9----------------------------|
G|------11-------8---6-------------------6---8-------6-----------------------6---8-------9---8---6---8|
D|---------------------------6---8---9----------------------------------------------------------------|
A|----------------------------------------------------------------------------------------------------|
E|----------------------------------------------------------------------------------------------------|

E|-----------------------------------------------7-------6---7---6------------------------------------|
B|---------------------------------------9-----------9---------------9---7-------7---9---7------------|
G|-------------------6---8-------6-------------------------------------------8------------------13--15|
D|-------6---8---9------------------------------------------------------------------------------------|
A|----------------------------------------------------------------------------------------------------|
E|----------------------------------------------------------------------------------------------------|

E|--------------------------14------16----------------------------------------------16------19--16--18|
B|------14--16------14----------------------16------------------14--16------14------------------------|
G|--16----------------------------------------------13--15--16----------------------------------------|
D|----------------------------------------------------------------------------------------------------|
A|----------------------------------------------------------------------------------------------------|
E|----------------------------------------------------------------------------------------------------|

E|------16----------------------------------------------14------16--14--------------------------------|
B|--19------16--14------------------14--16------14----------------------14--16------11--12--11--------|
G|----------------------13--15--16--------------------------------------------------------------13--11|
D|----------------------------------------------------------------------------------------------------|
A|----------------------------------------------------------------------------------------------------|
E|----------------------------------------------------------------------------------------------------|

E|------------------------------------------16------19--16--18------16--------|
B|----------------------14--16------14--------------------------19------16--14|
G|--13------13--15--16--------------------------------------------------------|
D|----------------------------------------------------------------------------|
A|----------------------------------------------------------------------------|
E|----------------------------------------------------------------------------|

[Outro]
E|---7---9---------------------------------------6----------------------------------------------------|
B|---------------9--11---7---------------7---------------7--------------------------------------------|
G|-------------------------------6---8-------8-------8-----------6---6---8----------------------------|
D|-------------------------------------------------------------------------------8---9---8-------4---6|
A|----------------------------------------------------------------------------------------------------|
E|----------------------------------------------------------------------------------------------------|

E|----------------------------------------|
B|---------------------------------------7|
G|---------------------------6------------|
D|-------4---------------------------6----|
A|---------------4---5---4----------------|
E|----------------------------------------|



            
            
Suggest correction
Creating personal tab
Creating personal tab
You can edit any tab online and save it as your Personal.

You can edit, replace or remove any tab part or add personal notes – all changes will be seen only by you.

Personal tabs can be accessed anytime from any device, even offline.
Learn more »
Give kudos to tab author, rate the tab!
1 2 3 4 5
comments
print report bad tab
guest
You may want to rate the tab now too:
select rating
Wanna post a correction for this tab? Suggest correction