Oops, an error
Loading. Please wait.

Where You Are tab

by Tauk
43 views 1 this week
no commentswrite comment
1 2 3 4 5
3 more votes to show rating
add to favorites
×
Save as Personal and add changes to this tab that will be seen only by you. Learn more ›
×
You can save this tab as Personal to edit and correct it or add notes. All changes will be seen only by you. Learn more »
launch autoscroll
font size
0
reset
how to read this tab
guitar tuner
edit
Autoscroll
slow
fast
+/-
esc
set tempo
stop
Author
Difficulty
[Intro]
E|---------------------|---------------------|---------------------|---------------------|
B|---------------------|---------------------|---------------------|---------------------|
G|------5----0---------|------5----0---------|------5----0---------|------5----0---------|
D|---------------------|---------------------|---------------------|---------------------|
A|---------------------|---------------------|-8--------------8----|-6--------------6----|
E|-8--------------8----|-6--------------6----|---------------------|---------------------|(x3)

E|---------------------|---------------------|---------------------|---------------------|
B|---------------------|---------------------|---------------------|---------------------|
G|------5----0---------|------5----0---------|------5----0---------|------5----7---------|
D|---------------------|---------------------|---------------------|---------------------|
A|---------------------|---------------------|-8--------------8----|-6-------------------|
E|-8--------------8----|-6--------------6----|---------------------|---------------------|

E|---------------------|---------------------|---------------------|---------------------|
B|---------------------|---------------------|---------------------|---------------------|
G|------5----0---------|------5----0---------|------5----0---------|------5----0---------|
D|---------------------|---------------------|---------------------|---------------------|
A|---------------------|---------------------|-8--------------8----|-6--------------6----|
E|-8--------------8----|-6--------------6----|---------------------|---------------------|

E|---------------------|---------------------|---------------------|---------------------|
B|---------------------|---------------------|---------------------|---------------------|
G|------5----0---------|------5----0---------|------5----0---------|------5----7---------|
D|---------------------|---------------------|---------------------|---------------------|
A|---------------------|---------------------|-8--------------8----|-6-------------------|
E|-8--------------8----|-6--------------6----|---------------------|---------------------|

E|---------------------|---------------------|---------------------|---------------------|
B|---------------------|---------------------|---------------------|---------------------|
G|------5----0---------|------5----0---------|------5----0---------|------5----0---------|
D|---------------------|---------------------|---------------------|---------------------|
A|---------------------|---------------------|-8--------------8----|-6--------------6----|
E|-8--------------8----|-6--------------6----|---------------------|---------------------|(x4)

[Verse 1]
E|---------------------|---------------------|---------------------|---------------------|
B|----------------6----|-8--------------6----|---------------------|---------------------|
G|-8---------8---------|------7--------------|-8----7----5---------|-5---------7----0----|
D|---------------------|---------------------|---------------------|---------------------|
A|---------------------|---------------------|---------------------|------6--------------|
E|---------------------|---------------------|---------------------|---------------------|

E|---------------------|---------------------|---------------------|---------------------|
B|---------------------|------6----8---------|------6--------------|---------------------|
G|------0----8---------|-8--------------7----|-----------8----7----|-5---------8---------|
D|---------------------|---------------------|---------------------|---------------------|
A|---------------------|---------------------|---------------------|----------------6----|
E|-6-------------------|---------------------|---------------------|---------------------|

E|---------------------|---------------------|---------------------|---------------------|
B|---------------------|----------------6----|-8--------------6----|---------------------|
G|-7----0---------0----|-5---------8---------|------7--------------|-8----7----5---------|
D|---------------------|---------------------|---------------------|---------------------|
A|---------------------|---------------------|---------------------|---------------------|
E|-----------6---------|---------------------|---------------------|---------------------|

E|---------------------|---------------------|---------------------|---------------------|
B|---------------------|---------------------|-----------6----8----|-----------6---------|
G|-5----8----7---------|----------------5----|------8--------------|-7-------------------|
D|----------------8----|-8----8----8---------|---------------------|----------------8----|
A|---------------------|-8----10---8---------|---------------------|---------------------|
E|---------------------|---------------------|---------------------|---------------------|

E|---------------------|
B|---------------------|
G|-5-------------------|
D|---------------------|
A|---------------------|
E|---------------------|

E|---------------------|---------------------|---------------------|---------------------|
B|---------------------|---------------------|---------------------|---------------------|
G|------5----0---------|------5----0---------|------5----0---------|------5----0---------|
D|---------------------|---------------------|---------------------|---------------------|
A|---------------------|---------------------|-8--------------8----|-6--------------6----|
E|-8--------------8----|-6--------------6----|---------------------|---------------------|

E|---------------------|---------------------|---------------------|---------------------|
B|---------------------|---------------------|---------------------|---------------------|
G|------5----0---------|------5----0---------|------5----0---------|------5----7---------|
D|---------------------|---------------------|---------------------|---------------------|
A|---------------------|---------------------|-8--------------8----|-6-------------------|
E|-8--------------8----|-6--------------6----|---------------------|---------------------|

E|---------------------|---------------------|---------------------|---------------------|
B|---------------------|---------------------|---------------------|---------------------|
G|------5----0---------|------5----0---------|------5----0---------|------5----0---------|
D|---------------------|---------------------|---------------------|---------------------|
A|---------------------|---------------------|-8--------------8----|-6--------------6----|
E|-8--------------8----|-6--------------6----|---------------------|---------------------|(x2)

[Verse 2]
E|---------------------|---------------------|---------------------|---------------------|
B|----------------6----|-8--------------6----|---------------------|---------------------|
G|-8---------8---------|------7--------------|-8----7----5---------|-5---------7----0----|
D|---------------------|---------------------|---------------------|---------------------|
A|---------------------|---------------------|---------------------|------6--------------|
E|---------------------|---------------------|---------------------|---------------------|

E|---------------------|---------------------|---------------------|---------------------|
B|---------------------|------6----8---------|------6--------------|---------------------|
G|------0----8---------|-8--------------7----|-----------8----7----|-5---------8---------|
D|---------------------|---------------------|---------------------|---------------------|
A|---------------------|---------------------|---------------------|----------------6----|
E|-6-------------------|---------------------|---------------------|---------------------|


E|---------------------|---------------------|---------------------|---------------------|
B|---------------------|----------------6----|-8--------------6----|---------------------|
G|-7----0---------0----|-5---------8---------|------7--------------|-8----7----5---------|
D|---------------------|---------------------|---------------------|---------------------|
A|---------------------|---------------------|---------------------|---------------------|
E|-----------6---------|---------------------|---------------------|---------------------|


E|---------------------|---------------------|---------------------|---------------------|
B|---------------------|---------------------|-----------6----8----|-----------6---------|
G|-5----8----7---------|----------------5----|------8--------------|-7-------------------|
D|----------------8----|-8----8----8---------|---------------------|----------------8----|
A|---------------------|-8----10---8---------|---------------------|---------------------|
E|---------------------|---------------------|---------------------|---------------------|


E|---------------------|
B|---------------------|
G|-5-------------------|
D|---------------------|
A|---------------------|
E|---------------------|

E|---------------------|---------------------|---------------------|---------------------|
B|---------------------|---------------------|---------------------|---------------------|
G|------5----0---------|------5----0---------|------5----0---------|------5----0---------|
D|---------------------|---------------------|---------------------|---------------------|
A|---------------------|---------------------|-8--------------8----|-6--------------6----|
E|-8--------------8----|-6--------------6----|---------------------|---------------------|

E|---------------------|---------------------|---------------------|---------------------|
B|---------------------|---------------------|---------------------|---------------------|
G|------5----0---------|------5----0---------|------5----0---------|------5----7---------|
D|---------------------|---------------------|---------------------|---------------------|
A|---------------------|---------------------|-8--------------8----|-6-------------------|
E|-8--------------8----|-6--------------6----|---------------------|---------------------|

E|---------------------|---------------------|---------------------|---------------------|
B|---------------------|---------------------|---------------------|---------------------|
G|------5----0---------|------5----0---------|------5----0---------|------5----0---------|
D|---------------------|---------------------|---------------------|---------------------|
A|---------------------|---------------------|-8--------------8----|-6--------------6----|
E|-8--------------8----|-6--------------6----|---------------------|---------------------|(x2)

[Keyboard and Guitar Duet]
E|---------------------|---------------------|---------------------|---------------------|
B|---------------------|---------------------|---------------------|---------------------|
G|---------------------|---------------------|---------------------|---------------------|
D|-5----5--------------|-5----5----3----3----|-5----5----5----5----|-5----5--------------|
A|-3----3--------------|-3----3--------------|---------------------|-3----3---------5----|
E|---------------------|---------------------|---------------------|---------------------|

E|---------------------|---------------------|---------------------|---------------------|
B|---------------------|---------------------|---------------------|---------------------|
G|---------------------|---------------------|-----------3----5----|-3----0---------3----|
D|-----------5----5----|-5----5----5----5----|-5----5--------------|-----------5---------|
A|-----------3----3----|-6----6----6----5----|-3----3--------------|---------------------|
E|-6----6--------------|---------------------|---------------------|---------------------|

E|---------------------|--------|---------------------|---------------------|---------------------|
B|---------------------|--------|---------------------|---------------------|---------------------|
G|---------------------|--------|-----------3----5----|-3----0---------3----|---------------------|
D|-3----5----5----5----|--------|-5----5--------------|-----------5---------|-3----5----5----5----|
A|-----------3----3----|--------|-3----3--------------|---------------------|-----------3----3----|
E|---------------------|--------|---------------------|---------------------|---------------------|

E|--------|---------------------|---------------------|---------------------|---------------------|
B|--------|---------------------|---------------------|---------------------|---------------------|
G|--------|-5----3----0---------|---------------------|---------------------|-8----8----10---10---|
D|--------|----------------5----|-6----3----5---------|---------------------|---------------------|
A|--------|---------------------|----------------3----|-3-------------------|---------------------|
E|--------|---------------------|---------------------|---------------------|---------------------|

E|---------------------|--------|---------------------|---------------------|---------------------|
B|-8-------------------|--------|---------------------|---------------------|---------------------|
G|---------------------|--------|-10---8----7---------|-7-------------------|---------------------|
D|------10---8----10---|--------|----------------10---|------10---8---------|-8---------8---------|
A|---------------------|--------|---------------------|----------------10---|------10-------------|
E|---------------------|--------|---------------------|---------------------|---------------------|

E|---------------------|---------------------|---------------------|---------------------|
B|---------------------|---------------------|------8--------------|---------------------|
G|---------------------|-----------7----8----|-10--------10---8----|-10---8--------------|
D|---------------------|-8----10-------------|---------------------|-----------10---10---|
A|-10------------------|---------------------|---------------------|---------------------|
E|---------------------|---------------------|---------------------|---------------------|

E|--------|-----------6---------|-8-------------------|-----------6---------|---------------------|
B|--------|-6----8--------------|------8----6----8----|----------------6----|-8-------------------|
G|--------|---------------------|---------------------|---------------------|------7----8----7----|
D|--------|---------------------|---------------------|---------------------|---------------------|
A|--------|---------------------|---------------------|---------------------|---------------------|
E|--------|---------------------|---------------------|---------------------|---------------------|

E|---------------------|-10---11---10--------|------8--------------|---------------------|
B|---------------------|----------------8----|-11-------------11---|-8---------8---------|
G|------5--------------|---------------------|---------------------|------10-------------|
D|-8-------------------|---------------------|---------------------|---------------------|
A|---------------------|---------------------|---------------------|---------------------|
E|---------------------|---------------------|---------------------|---------------------|

E|---------------------|---------------------|---------------------|---------------------|
B|---------------------|---------------------|---------------------|---------------------|
G|-10---8----7---------|-7-------------------|---------------------|------8----10---11---|
D|----------------10---|---------------------|-8---------8----9----|-10------------------|
A|---------------------|------10-------------|------10-------------|---------------------|
E|---------------------|---------------------|---------------------|---------------------|

E|---------------------|---------------------|--------|-13---11---10--------|-10------------------|
B|---------------------|-----------8----11---|--------|----------------13---|------13---11---13---|
G|-10---8----10--------|-8----10-------------|--------|---------------------|---------------------|
D|----------------10---|---------------------|--------|---------------------|---------------------|
A|---------------------|---------------------|--------|---------------------|---------------------|
E|---------------------|---------------------|--------|---------------------|---------------------|

E|---------------------|---------------------|-13---13-------------|---------------------|
B|-15---16---15---13---|-13------------------|-----------16---15---|-16---13---15---16---|
G|---------------------|---------------------|---------------------|---------------------|
D|---------------------|---------------------|---------------------|---------------------|
A|---------------------|---------------------|---------------------|---------------------|
E|---------------------|---------------------|---------------------|---------------------|

[Bridge]
E|---------------------|--------|---------------------|---------------------|----------------6----|
B|-13---11--------11---|--------|----------------6----|----------------6----|---------------------|
G|-----------12--------|--------|-5----7----8---------|-5----7----8---------|------5----8---------|
D|---------------------|--------|---------------------|---------------------|---------------------|
A|---------------------|--------|---------------------|---------------------|---------------------|
E|---------------------|--------|---------------------|---------------------|---------------------|

E|---------------------|---------------------|------6--------------|-11---10-------------|
B|-8-------------------|-9----8--------------|-----------8---------|-----------11---8----|
G|-----------8----7----|----------------5----|-8-------------------|---------------------|
D|---------------------|---------------------|---------------------|---------------------|
A|---------------------|---------------------|---------------------|---------------------|
E|---------------------|---------------------|---------------------|---------------------|

E|----------------6----|---------------------|---------------------|------6--------------|
B|---------------------|-8-------------------|-9----8--------------|-----------8---------|
G|------5----8---------|-----------8----7----|----------------5----|-8-------------------|
D|---------------------|---------------------|---------------------|---------------------|
A|---------------------|---------------------|---------------------|---------------------|
E|---------------------|---------------------|---------------------|---------------------|

[Verse 3]
E|---------------------|---------------------|---------------------|---------------------|
B|----------------6----|-8--------------6----|---------------------|---------------------|
G|-8---------8---------|------7--------------|-8----7----5---------|-5---------7----0----|
D|---------------------|---------------------|---------------------|---------------------|
A|---------------------|---------------------|---------------------|------6--------------|
E|---------------------|---------------------|---------------------|---------------------|

E|---------------------|---------------------|---------------------|---------------------|
B|---------------------|------6----8---------|------6--------------|---------------------|
G|------0----8---------|-8--------------7----|-----------8----7----|-5---------8---------|
D|---------------------|---------------------|---------------------|---------------------|
A|---------------------|---------------------|---------------------|----------------6----|
E|-6-------------------|---------------------|---------------------|---------------------|

E|---------------------|---------------------|---------------------|---------------------|
B|---------------------|----------------6----|-8--------------6----|---------------------|
G|-7----0---------0----|-5---------8---------|------7--------------|-8----7----5---------|
D|---------------------|---------------------|---------------------|---------------------|
A|---------------------|---------------------|---------------------|---------------------|
E|-----------6---------|---------------------|---------------------|---------------------|


E|---------------------|---------------------|---------------------|---------------------|
B|---------------------|---------------------|-----------6----8----|-----------6---------|
G|-5----8----7---------|----------------5----|------8--------------|-7-------------------|
D|----------------8----|-8----8----8---------|---------------------|----------------8----|
A|---------------------|-8----10---8---------|---------------------|---------------------|
E|---------------------|---------------------|---------------------|---------------------|


E|---------------------|
B|---------------------|
G|-5-------------------|
D|---------------------|
A|---------------------|
E|---------------------|

E|---------------------|---------------------|---------------------|---------------------|
B|---------------------|---------------------|---------------------|---------------------|
G|------5----0---------|------5----0---------|------5----0---------|------5----0---------|
D|---------------------|---------------------|---------------------|---------------------|
A|---------------------|---------------------|-8--------------8----|-6--------------6----|
E|-8--------------8----|-6--------------6----|---------------------|---------------------|

E|---------------------|---------------------|---------------------|---------------------|
B|---------------------|---------------------|---------------------|---------------------|
G|------5----0---------|------5----0---------|------5----0---------|------5----7---------|
D|---------------------|---------------------|---------------------|---------------------|
A|---------------------|---------------------|-8--------------8----|-6-------------------|
E|-8--------------8----|-6--------------6----|---------------------|---------------------|

E|---------------------|---------------------|---------------------|---------------------|
B|---------------------|---------------------|---------------------|---------------------|
G|------5----0---------|------5----0---------|------5----0---------|------5----0---------|
D|---------------------|---------------------|---------------------|---------------------|
A|---------------------|---------------------|-8--------------8----|-6--------------6----|
E|-8--------------8----|-6--------------6----|---------------------|---------------------|(x2)

[Outro]
E|---------------------|---------------------|---------------------|---------------------|
B|---------------------|---------------------|---------------------|---------------------|
G|------5----0---------|------5----0---------|------5----0---------|------5----0---------|
D|---------------------|---------------------|---------------------|---------------------|
A|---------------------|---------------------|---------------------|---------------------|
E|-8--------------8----|-8--------------8----|-8--------------8----|-8--------------8----|(x8)

            
            
Suggest correction
Creating personal tab
Creating personal tab
You can edit any tab online and save it as your Personal.

You can edit, replace or remove any tab part or add personal notes – all changes will be seen only by you.

Personal tabs can be accessed anytime from any device, even offline.
Learn more »
Give kudos to tab author, rate the tab!
1 2 3 4 5
comments
print report bad tab
guest
You may want to rate the tab now too:
select rating
Wanna post a correction for this tab? Suggest correction