Oops, an error
Loading. Please wait.

I Dont Wanna Live Forever tab

version 1
version 1

Whole song

  • Fully structured tab with song timings, easy to follow.

Video

  • High quality video, on screen guitar tab, easy to follow.
7,831 views 57 this week
no commentswrite comment
1 2 3 4 5
x 5
add to favorites
×
Save as Personal and add changes to this tab that will be seen only by you. Learn more ›
×
You can save this tab as Personal to edit and correct it or add notes. All changes will be seen only by you. Learn more »
launch autoscroll
font size
0
reset
how to read this tab
guitar tuner
edit
Autoscroll
slow
fast
+/-
esc
set tempo
stop
Author
Difficulty
Andrew Foy's Arrangement
https://www.youtube.com/watch?v=o4zGs1gSBbY

[Intro]

e|----------1-0---------0------------0----------------------1-0----------0-----|
B|-1------1---------1------3------------1-------0---------1---------1-------3--|
G|-2------------------0----0------------2-------0--2-------------------0----0--|
D|-3-3---------------------0----0-------2-------0--3-3----------------------0--|
A|----------------3------------------------0-0-----3--------------3------------|
E|-1---1----------------------3---3-------------3--1---1-----------------------|

e|-----------------------------------------------------------------------------|
B|---------5\--1----0----------------------------------------------------------|
G|---------4---2----0--2-------------------------------------------------------|
D|----0----3---2----0--3-3-----------------------------------------------------|
A|---------3---0-0-----3-------x-----------------------------------------------|
E|--3---3-----------3--1----1--x-----------------------------------------------|


[Verse]

e|-----------------------------------------------------------------------------|
B|-3-3-3-3---1h3-3-----3-3-3-3-3--1h3-3-----3-----1----------------------------|
G|---------------------------------------------2--------------------------2----|
D|----------------------------------------------------/7----------5\3----------|
A|-----------3------3--x--------------------x----------0--0--x--0--------------|
E|-1-------------------x----------3------3--x----------------x---------1------1|

e|-----------------------------------------------------------------------------|
B|----3-3-3-3--1h3-3-----3-3-3-3--3--3-----3-----1-----------------------------|
G|--------------------------------------------2--------------------------------|
D|---------------------------------------------------/7--------5------0--------|
A|-x-----------3------3--x-----------------x----------0-0--x-0---5/8-----8-----|
E|-x--1------------------x--------3-----3--x---------------x-------------------|


[Pre-Chorus]
                                                       t t
e|-/8-8-5---------------8-8-8------6/8----5-6/8---5----8-8p5---------7/8-8-5---|
B|---------8------------------8----6/8------------5--8-----------------------8-|
G|-----------------9-------------0-----0----------5-------------0--------------|
D|-----------------------------------------------------------------------------|
A|-x--------------------x-----------------x-------0-----------8---8--x---------|
E|-x-----------6/8---8--x-----------------x--------------------------x---------|
     
                                      t
e|------------8-8------------5--8p5h8-10---/12---------------------------------|
B|-------8h10-----10-8----8----------------/13---------------------------------|
G|-----9----------------0----0-------------/14---------------------------------|
D|-----------------------------------------------------------------------------|
A|------------------------------x----------------------------------------------|
E|-6/8--------------------------x----------------------------------------------|


[Chorus]
                     o  o             o  o               o  o
e|--3h5--8h10---12---------8-8---------------(8)---7-7-7-7--7h8p7---5----3-----|
B|--------------10-----------------10--------(10)--8----------------5----------|
G|--------------10-----------------9---------(9)---0----------------5----------|
D|-----------------------------------------------------------------------------|
A|--x-----------8-----------------------------------------------------0--------|
E|--x---------------------------8----------------------------------------------|

                     o  o             o  o               o  o
e|--3h5--7/8h10-12---------8-8---------------(8)---7-7-7-7--7h8p7---5----3-----|
B|--------------10-----------------10--------(10)--8----------------5----------|
G|--------------10-----------------9---------(9)---0----------------5----------|
D|-----------------------------------------------------------------------------|
A|--x-----------8-----------------------------------------------------0--------|
E|--x---------------------------8----------------------------------------------|

                                                      o  o
e|--0---------------------------1-0--------0---/7-7-7-7--7h8p7-----------------|
B|----3-1-----1h3-------------1--------1--------------------------5------------|
G|---------2-------2---------------------0------0-----------------5------------|
D|-----------------3---3------------------------------------------5------------|
A|------x------------------x---------3-------------------------------0---------|
E|------x----------1-1-----x---------------------------------------------------|

                                                      o  o
e|--0---------------------------1-0--------0---/7-7-7-7--7h8p7-----------------|
B|----3-1-----1h3-------------1--------1--------------------------5------------|
G|---------2-------2---------------------0------0-----------------5------------|
D|-----------------3---3------------------------------------------5------------|
A|------x------------------x---------3-------------------------------0---------|
E|------x----------1-1-----x---------------------------------------------------|

e|-0---------------------------------------------------------------------------|
B|----3-1----1h3---------------------------------------------------------------|
G|---------2-------2-----------------------------------------------------------|
D|-----------------3-----------------------------------------------------------|
A|------x---------------x------------------------------------------------------|
E|------x----------1-1--x------------------------------------------------------|


[Verse]

e|-----------------------------------------------------------------------------|
B|-3-3-3-3---1h3-3-----3-3-3-3-3--1h3-3-----3-----1----------------------------|
G|---------------------------------------------2--------------------------2----|
D|----------------------------------------------------/7----------5\3----------|
A|-----------3------3--x--------------------x----------0--0--x--0--------------|
E|-1-------------------x----------3------3--x----------------x---------1------1|

e|-----------------------------------------------------------------------------|
B|----3-3-3-3--1h3-3-----3-3-3-3--3--3-----1-1-1-------------------------------|
G|------------------------------------------------/10-9-9/10\9-7-------0-------|
D|---------------------------------------------------------------10------------|
A|-x-----------3------3--x-----------------x----------0------x------8-----8----|
E|-x--1------------------x--------3-----3--x-----------------x-----------------|


[Pre-Chorus]
                                                       t t
e|-/8-8-5---------------8-8-8------6/8----5-6/8---5----8-8p5---------7/8-8-5---|
B|---------8------------------8----6/8------------5--8-----------------------8-|
G|-----------------9-------------0-----0----------5-------------0--------------|
D|-----------------------------------------------------------------------------|
A|-x--------------------x-----------------x-------0-----------8---8--x---------|
E|-x-----------6/8---8--x-----------------x--------------------------x---------|
     
                                      t
e|------------8-8------------5--8p5h8-10---/12---------------------------------|
B|-------8h10-----10-8----8----------------/13---------------------------------|
G|-----9----------------0----0-------------/14---------------------------------|
D|-----------------------------------------------------------------------------|
A|------------------------------x----------------------------------------------|
E|-6/8--------------------------x----------------------------------------------|


[Chorus]
                     o  o             o  o               o  o
e|--3h5--8h10---12---------8-8---------------(8)---7-7-7-7--7h8p7---5----3-----|
B|--------------10-----------------10--------(10)--8----------------5----------|
G|--------------10-----------------9---------(9)---0----------------5----------|
D|-----------------------------------------------------------------------------|
A|--x-----------8-----------------------------------------------------0--------|
E|--x---------------------------8----------------------------------------------|

                     o  o             o  o               o  o
e|--3h5--7/8h10-12---------8-8---------------(8)---7-7-7-7--7h8p7---5----3-----|
B|--------------10-----------------10--------(10)--8----------------5----------|
G|--------------10-----------------9---------(9)---0----------------5----------|
D|-----------------------------------------------------------------------------|
A|--x-----------8-----------------------------------------------------0--------|
E|--x---------------------------8----------------------------------------------|

                                                      o  o
e|--0---------------------------1-0--------0---/7-7-7-7--7h8p7-----------------|
B|----3-1-----1h3-------------1--------1--------------------------5------------|
G|---------2-------2---------------------0------0-----------------5------------|
D|-----------------3---3------------------------------------------5------------|
A|------x------------------x---------3-------------------------------0---------|
E|------x----------1-1-----x---------------------------------------------------|

                                                      o  o
e|--0---------------------------1-0--------0---/7-7-7-7--7h8p7-----------------|
B|----3-1-----1h3-------------1--------1--------------------------5------------|
G|---------2-------2---------------------0------0-----------------5------------|
D|-----------------3---3------------------------------------------5------------|
A|------x------------------x---------3-------------------------------0---------|
E|------x----------1-1-----x---------------------------------------------------|

e|-0---------------------------------------------------------------------------|
B|----3-1----1h3---------------------------------------------------------------|
G|---------2-------------------------------------------------------------------|
D|-----------------------------------------------------------------------------|
A|------x----------------------------------------------------------------------|
E|------x----------------------------------------------------------------------|


[Bridge]

e|-1-0-----------------1-0--------------------/8-8-5--------5--5/8-8-5\--------|
B|-1----3-1--1h3p1-3---1---3-1---1h3p1-3-------------8-------------------------|
G|-2-------------------0------------------0-0-------------5--------------------|
D|-3------3--------------------------------------------------------------------|
A|-----------x---------3-----3---x-------------x--------0------x---------------|
E|-----------x-------------------x-------------x---------------x---------------|

e|-1-0-----------------1-0--------------------/8---5---6/8--5----6/8-8-5-------|
B|-1----3-1--1h3p1-3---1---3-1---1h3p1-3---------0---0------5--8---------------|
G|-2-------------------0------------------0-----------------5------------------|
D|-3------3--------------------------------------------------------------------|
A|-----------x---------3-----3---x-----------------x--------0------------------|
E|-----------x-------------------x-----------------x---------------------------|


e|-1-0-----------------1-0--------------------/8-8-5--------5--5/8-8-5\--------|
B|-1----3-1--1h3p1-3---1---3-1---1h3p1-3-------------8-------------------------|
G|-2-------------------0------------------0-0-------------5--------------------|
D|-3------3--------------------------------------------------------------------|
A|-----------x---------3-----3---x-------------x--------0------x---------------|
E|-----------x-------------------x-------------x---------------x---------------|

                                                               t
e|-1-0--------------------8-----8h10-10/11\10-8-------5--8p5h8-10--/12---------|
B|-1---3-1--1h3p1-3--8h10---10--8------------------8---------------/13---------|
G|-2-----------------9----------9----------------0----0------------/14---------|
D|-3-----3----------------------10---------------------------------------------|
A|----------x-------------------x------------------------x---------------------|
E|----------x--------8----------x------------------------x---------------------|


[Chorus]
                     o  o             o  o               o  o
e|--3h5--8h10---12---------8-8---------------(8)---7-7-7-7--7h8p7---5----3-----|
B|--------------10-----------------10--------(10)--8----------------5----------|
G|--------------10-----------------9---------(9)---0----------------5----------|
D|-----------------------------------------------------------------------------|
A|--x-----------8-----------------------------------------------------0--------|
E|--x---------------------------8----------------------------------------------|

                     o  o             o  o               o  o
e|--3h5--7/8h10-12---------8-8---------------(8)---7-7-7-7--7h8p7---5----3-----|
B|--------------10-----------------10--------(10)--8----------------5----------|
G|--------------10-----------------9---------(9)---0----------------5----------|
D|-----------------------------------------------------------------------------|
A|--x-----------8-----------------------------------------------------0--------|
E|--x---------------------------8----------------------------------------------|

                                                      o  o
e|--0---------------------------1-0--------0---/7-7-7-7--7h8p7-----------------|
B|----3-1-----1h3-------------1--------1--------------------------5------------|
G|---------2-------2---------------------0------0-----------------5------------|
D|-----------------3---3------------------------------------------5------------|
A|------x------------------x---------3-------------------------------0---------|
E|------x----------1-1-----x---------------------------------------------------|

                                                      o  o
e|--0---------------------------1-0--------0---/7-7-7-7--7h8p7-----------------|
B|----3-1-----1h3-------------1--------1--------------------------5------------|
G|---------2-------2---------------------0------0-----------------5------------|
D|-----------------3---3------------------------------------------5------------|
A|------x------------------x---------3-------------------------------0---------|
E|------x----------1-1-----x---------------------------------------------------|

e|-0---------------------------------------------------------------------------|
B|----3-1----1h3---------------------------------------------------------------|
G|---------2-------------------------------------------------------------------|
D|-----------------------------------------------------------------------------|
A|------x----------------------------------------------------------------------|
E|------x----------------------------------------------------------------------|


[Outro]

e|----------1-0---------0------------0----------------------1-0----------0-----|
B|-1------1---------1------3------------1-------0---------1---------1-------3--|
G|-2------------------0----0------------2-------0--2-------------------0----0--|
D|-3-3---------------------0----0-------2-------0--3-3----------------------0--|
A|----------------3------------------------0-0-----3--------------3------------|
E|-1---1----------------------3---3-------------3--1---1-----------------------|

e|-----------------------------------------------------------------------------|
B|---------5\--1----0----------------------------------------------------------|
G|---------4---2----0--2-------------------------------------------------------|
D|----0----3---2----0--3-------------------------------------------------------|
A|---------3---0-0-----3-------------------------------------------------------|
E|--3---3-----------3--1-------------------------------------------------------|

************************************

| x   Dead note
| (n) Ghost note
| h   Hammer-on
| p   Pull-off
| t   Tapping
| /   Slide up
| \   Slide down
| ~   Vibrato
| o   Wrist thump

************************************

            
            
Suggest correction
Creating personal tab
Creating personal tab
You can edit any tab online and save it as your Personal.

You can edit, replace or remove any tab part or add personal notes – all changes will be seen only by you.

Personal tabs can be accessed anytime from any device, even offline.
Learn more »
comments
print report bad tab
guest
You may want to rate the tab now too:
select rating
Wanna post a correction for this tab? Suggest correction