Oops, an error
Loading. Please wait.

I Wish You Would tab

1,192 views 6 this week
no commentswrite comment
1 2 3 4 5
3 more votes to show rating
add to favorites
×
Save as Personal and add changes to this tab that will be seen only by you. Learn more ›
×
You can save this tab as Personal to edit and correct it or add notes. All changes will be seen only by you. Learn more »
launch autoscroll
font size
0
reset
how to read this tab
guitar tuner
edit
Autoscroll
slow
fast
+/-
esc
set tempo
stop
Author
Difficulty
-------------------------------------------------------------------------------
                             I WISH YOU WOULD - TAYLOR SWIFT
-------------------------------------------------------------------------------
Tabbed by: James Grapes

Really cool new tswizzle tune, jack antonoff from the bleachers wrote backing for this, taylor
wrote the melody and lyrics and then they put it all together

enjoy

Song has two parts
1 Guitar intro / verse
2 Synth chorus / 'bridge' (you always knew how to push my buttons...)


Guitar intro / verse

Lead guitar - heavy delay

e|--8--10--12--10--12-|
B|--8---8---8---8--8--|
G|--9---9---9---9--9--|
D|--------------------|
A|--------------------|
E|--------------------|

Rhythm guitar - heavy delay, much lower in the mix

e|--8---8---8---8--8--|
B|--8---8---8---8--8--|
G|--9---9---9---9--9--|   
D|--------------------|
A|--------------------|
E|--------------------|



Synth chorus / 'bridge'

C  Am  F* G*

* play for half as long as other chords


            
            
Suggest correction
Creating personal tab
Creating personal tab
You can edit any tab online and save it as your Personal.

You can edit, replace or remove any tab part or add personal notes – all changes will be seen only by you.

Personal tabs can be accessed anytime from any device, even offline.
Learn more »
Give kudos to tab author, rate the tab!
1 2 3 4 5
comments
print report bad tab
guest
You may want to rate the tab now too:
select rating
Wanna post a correction for this tab? Suggest correction