Oops, an error
Loading. Please wait.

If This Was A Movie tab

version 2
version 2

Whole song

302 views 1 this week
no commentswrite comment
1 2 3 4 5
3 more votes to show rating
add to favorites
×
Save as Personal and add changes to this tab that will be seen only by you. Learn more ›
×
You can save this tab as Personal to edit and correct it or add notes. All changes will be seen only by you. Learn more »
launch autoscroll
font size
0
reset
how to read this tab
guitar tuner
edit
Autoscroll
slow
fast
+/-
esc
set tempo
stop
Author
Difficulty
-------------------------------------------------------------------------------
                             If This Was A Movie - Taylor Swift
-------------------------------------------------------------------------------
Tabbed by: 123kcjoseph
E-mail: lisztjoseph@yahoo.com.hk

Tuning: Standard
Rhythm: Each "-" represent a quarter of a beat. (h/p doesn't count)
This song starts at one quarter after the first beat. 
A spacebar represent one bar (4 beats)
All tabs are from 0 to 9, so 11 means two consecutive 1's.

Intro:
e|---0---0---0---0 ---0---0---0---0|
B|---------------- ----------------|
G|--8-8-8---8-8-8- 8-8-8-8---8-8-8-|
D|-9---9---9---9-- -9---9---9---9--|
A|---------------- ----------------|
E|---------------- ----------------|

Verse 1:
e|------------------ ----------------- ------------------- ------------------|
B|-------------2-p0- -------------2--- ----------0-0-2-p0- ----------0-0-----|
G|1-h444-4-4-4------ 1h44-4-4-4-4----- 1-h4-4-p1---------- 1h44-4-p0---------|
D|------------------ ----------------- ------------------- --------------2---|
A|------------------ ----------------- ------------------- ------------------|
E|------------------ ----------------- ------------------- ------------------|
Last night I heard my own heart beating
Sounded like footsteps on my stairs
Six months gone and I'm still reaching
Even though I know you're not there

e|------------------------ ------------------ ---------------------- ----------0-4---|
B|--------------------2-0- ----------0-0-2--- -------------0-0-2-p00 0-0----02-------|
G|1h44p1h4p1h4p1h4p1h4---- 1h44-4p14--------- 1h44p1h4p1h4---------- ----1-----------|
D|------------------------ ------------------ ---------------------- ----------------|
A|------------------------ ------------------ ---------------------- ----------------|
E|------------------------ ------------------ ---------------------- ----------------|
I was playing back a thousand memories, baby
Thinkin' 'bout everythin' we've been through
Maybe I've been goin' back too much lately
When time stood still and I had you

Chorus 1:
e|2h4-2h4-2h4-4h7-4-p2- 2h4-2h4-2h4-4h7-4-p2- 2h4-2h4-4h7-p5-p4-p0-- ----------------|
B|--------------------- --------------------- ---------------------- 2---------------|
G|--------------------- --------------------- ---------------------- ----------------|
D|--------------------- --------------------- ---------------------- ----------------|
A|--------------------- --------------------- ---------------------- ----------------|
E|--------------------- --------------------- ---------------------- ----------------|
Come back, come back, come back to me like
You would, you would if this was a movie
Stand in the rain outside
'Til I came out

e|2h4-2h4-2h4-4h7-4-p2- 2h4-2h4p22h4-4-74-p2- 2h4-2h4-4h7-p5-p4-p0-- ----------------|
B|--------------------- --------------------- ---------------------- 2-------------00|
G|--------------------- --------------------- ---------------------- ----------------|
D|--------------------- --------------------- ---------------------- ----------------|
A|--------------------- --------------------- ---------------------- ----------------|
E|--------------------- --------------------- ---------------------- ----------------|

e|2h4-2h4-2h5-p4-p2-p0-- ----------------|
B|---------------------- 2---------------|
G|---------------------- ----------------|
D|---------------------- ----------------|
A|---------------------- ----------------|
E|---------------------- ----------------|
Come back, come back, come back to me like
You could, you could if you just said you're sorry
I know that we could work it out somehow
But if this was a movie you'd be here by now

Verse 2:
e|------------------ ------------------ --------------------- ------------0h4--p2p0|
B|------------0-2--- ------------0-2--- -------------0h2-p0-- -----0-002h5---------|
G|1h44p14-4-4-----11 1h44p14-4-4------- 1h44p14-4p14--------- 1p44-----------------|
D|------------------ ------------------ --------------------4 ---------------------|
A|------------------ ------------------ --------------------- ---------------------|
E|------------------ ------------------ --------------------- ---------------------|
I know people change and these things happen
But I remember how it was back then
Locked up in your arms and our friends were laughing
'Cause nothing like this ever happened to them

e|2h4p2p0--2h4p2p04---p0- 7-p44p2-2p02p04----- 2h4p2p0--2h4p2p04----- 2p0h2p02p02h45-p4p2--p0-|
B|-------2--------------- -------------------- -------2-------------- ------------------------|
G|----------------------- -------------------- ---------------------- ------------------------|
D|----------------------- -------------------- ---------------------- ------------------------|
A|----------------------- -------------------- ---------------------- ------------------------|
E|----------------------- -------------------- ---------------------- ------------------------|
Now, I'm pacing down the hall, chasing down your street
Flashback to the night when you said to me
"Nothing's gonna change, not for me and you "
Not before I knew how much I had to lose

Chorus 2:
e|2h4-2h4-2h4-4h7-4-p2- 2h4-2h4-2h4-4h7-4-p2- 2h4-2h4-4h7-p5-p4-p0-- ----------------|
B|--------------------- --------------------- ---------------------- 2---------------|
G|--------------------- --------------------- ---------------------- ----------------|
D|--------------------- --------------------- ---------------------- ----------------|
A|--------------------- --------------------- ---------------------- ----------------|
E|--------------------- --------------------- ---------------------- ----------------|
Come back, come back, come back to me like
You would, you would if this was a movie
Stand in the rain outside
'Til I came out

e|2h4-2h4-2h4-4h7-4-p2- 2h4-2h4p22h4-4-74-p2- 2h4-2h4-4h7-p5-p4-p0-- ----------------|
B|--------------------- --------------------- ---------------------- 2-------------00|
G|--------------------- --------------------- ---------------------- ----------------|
D|--------------------- --------------------- ---------------------- ----------------|
A|--------------------- --------------------- ---------------------- ----------------|
E|--------------------- --------------------- ---------------------- ----------------|

e|2h4-2h4-2h5-p4-p2-p0--|
B|----------------------|
G|----------------------|
D|----------------------|
A|----------------------|
E|----------------------|
Come back, come back, come back to me like
You could, you could if you just said you're sorry
I know that we could work it out somehow
But if this was a movie you'd be here by now

Bridge solo:
e|---0------0-----7- -------0---0---0|
B|2------7---7h9---9 ----------------|
G|--8-8-8----------- ----8-8-8-8-8-8-|
D|-9---9------------ -----9---9---9--|
A|------------------ ----------------|
E|------------------ ----------------|

Bridge:
e|--0h2h4p2p0h2h4p2p0h2h4p22- --0h2h4p2p005p4-p22p00- 7p4444p22p02-h4p2---- 7p4444p22p02---4---|
B|--------------------------- ----------------------- --------------------0 -------------------|
G|--------------------------- ----------------------- --------------------- -------------------|
D|--------------------------- ----------------------- --------------------- -------------------|
A|--------------------------- ----------------------- --------------------- -------------------|
E|--------------------------- ----------------------- --------------------- -------------------|

e|--------------0--|
B|2---------0h2----|
G|-----------------|
D|-----------------|
A|-----------------|
E|-----------------|

If you're out there, if you're somewhere, if you're moving on
I've be waiting for you ever since you've been gone
I just want it back the way it was before
And I just wanna see you back at my front door

e|2h4-2h4-2h4-4h7-4-p2- 2h4-2h4p2h4p24-7-2-2- 2h4-2h4--2h4p2-p0---- ------4p24p2h4-4-4-|
B|--------------------- --------------------- ------------------4-- 2------------------|
G|--------------------- --------------------- --------------------- -------------------|
D|--------------------- --------------------- --------------------- -------------------|
A|--------------------- --------------------- --------------------- -------------------|
E|--------------------- --------------------- --------------------- -------------------|

And I say come back, come back, come back to me like
You would before you said it's not that easy
Before the fight, before I locked you out
But I'd take it all back now

Chorus 3:
e|2h4-2h4-2h4-4h7-4-p2- 2h4-2h4-2h4-4h7-4-p2- 2h4-2h4-4h7-p5-p4-p0-- ----------------|
B|--------------------- --------------------- ---------------------- 2---------------|
G|--------------------- --------------------- ---------------------- ----------------|
D|--------------------- --------------------- ---------------------- ----------------|
A|--------------------- --------------------- ---------------------- ----------------|
E|--------------------- --------------------- ---------------------- ----------------|
Come back, come back, come back to me like
You would, you would if this was a movie
Stand in the rain outside
'Til I came out

e|2h4-2h4-2h4-4h7-4-p2- 2h4-2h4p009-p7-7p42p0- 2h4-2h4-4h7-p5-p4-p0-- ----------------|
B|--------------------- ---------------------- ---------------------- 2-------------00|
G|--------------------- ---------------------- ---------------------- ----------------|
D|--------------------- ---------------------- ---------------------- ----------------|
A|--------------------- ---------------------- ---------------------- ----------------|
E|--------------------- ---------------------- ---------------------- ----------------|

e|2h4-2h4-2h5-p4-p2-p0-- ----------------|
B|---------------------- 2---------------|
G|---------------------- ----------------|
D|---------------------- ----------------|
A|---------------------- ----------------|
E|---------------------- ----------------|
Come back, come back, come back to me like
You could, you could if you just said sorry
I know that we could work it out somehow
But if this was a movie you'd be here by now

Ending/Coda:
e|--------5-p4p2-0-- -----------------|
B|-------0---------- --2--------------|
G|------------------ ------4p2--------|
D|------------------ -----------------|
A|------------------ -----------------|
E|------------------ -----------------|
You'd be here by now

e|-------------------- ----------------|
B|-----------------2-- --0-------------|
G|---11h44p144p14p1--- ----------------|
D|-------------------- ----------------|
A|-------------------- ----------------|
E|-------------------- ----------------|
It's not the kind of ending you wanna see now

e|------2p0--------- ----------------|
B|---------44444-/5- ----------------|
G|------------------ ----------------|
D|------------------ ----------------|
A|------------------ ----------------|
E|------------------ ----------------|
Baby, what about the ending?

e|-----0005-p4p2-0-- ----------------- ----------------- -----------------|
B|------------------ ----------------- ----------------- -----------------|
G|------------------ ----2-p1-------1- ----2-p1--------- ----2-p1-------1-|
D|------------------ -----------4----- -----------4---2- -----------4-----|
A|------------------ ----------------- ----------------- -----------------|
E|------------------ ----------------- ----------------- -----------------|
Oh, I thought you'd be here by now

e|---------0h2p04-p0- ----------------|
B|------------------- --2-------------|
G|------------------- ----------------|
D|------------------- ----------------|
A|------------------- ----------------|
E|------------------- ----------------|
That you'd be here by now
************************************

| /   slide up
| h   hammer-on
| p   pull-off
************************************

            
            
Suggest correction
Creating personal tab
Creating personal tab
You can edit any tab online and save it as your Personal.

You can edit, replace or remove any tab part or add personal notes – all changes will be seen only by you.

Personal tabs can be accessed anytime from any device, even offline.
Learn more »
Give kudos to tab author, rate the tab!
1 2 3 4 5
comments
print report bad tab
guest
You may want to rate the tab now too:
select rating
Wanna post a correction for this tab? Suggest correction