Oops, an error
Loading. Please wait.
We have an official Love Story tab made by UG professional guitarists. Check out the tab »
×
39,083 views 9 this week
2 commentsread comments
1 2 3 4 5
x 3
add to favorites
×
Save as Personal and add changes to this tab that will be seen only by you. Learn more ›
×
You can save this tab as Personal to edit and correct it or add notes. All changes will be seen only by you. Learn more »
launch autoscroll
font size
0
reset
how to read this tab
guitar tuner
backing track
0:00
0:00
edit
Autoscroll
slow
fast
+/-
esc
set tempo
stop
Author
Taylor Swift- Love Story (Lead Guitar)
Album: Fearless
Tabbed by:Lousy Shot14

First off I would like to give a special Thanks to Wunderkind7 on youtube
for inspiring me to make this tab.

Second: As far as I know this tab doesn't exist anywhere else as I have ear
transcribed it myself. It is not Wunderkinds, as his is much better, but I have done as
as I can. This is My first tab ever, so sorry if it sucks, I like it though.

Third: My version is played on only two strings, so you can pretty much play it on any
even bass, banjo, whatever you can think of.

Hey I'm a Heavy Metal Rocker dude and i LOVE Taylor Swift, so you shouldn't judge guys
they do. Haha

The SOng will Give you the rhythm

Key

h=Hammer on
p=Pull off
/=Slide to note
^=Refers to notes above
--------

Standard Tuning (EADGBE)

Intro x2
E-----------------------------------------------------------------------|
B-----------------------------------------------------------------------|
G-8h9-9-9--8h9-9-9/11/9---8h9-9-9--8h9-9-9/11/9--8h9-/6--9-9p8/4/6------|
D-----------------------------------------------------------------------|
A-----------------------------------------------------------------------|
E-----------------------------------------------------------------------|
^^^ Pick the intro at a slow steady pace ^^^

E-----------------------------------------------------------------------|
B---------------------------------------12p11---------------------------|
G-8h9-9-9--8h9-9-9/11/9---8h9-9-9/11/9--------12/14---------------------|
D-----------------------------------------------------------------------|
A-----------------------------------------------------------------------|
E-----------------------------------------------------------------------|
^^^ Speed up a little bit here ^^^

E-----------------------------------------------------------------------|
B--9h10-10-10--12-10-1212-10-13-12-15-14-------13/12--------------------|
G----------------------------------------------------13/14--------------|
D-----------------------------------------------------------------------|
A-----------------------------------------------------------------------|
E-----------------------------------------------------------------------|
^^^ Little Faster ^^^

E-----------------------------------------------------------------------|
B----------13-11-------------13-11-11-------13-11-------------13-11-11--|
G-13-15-13-------13-15-13-15----------13-15-------13-15-13-15-----------|
D-----------------------------------------------------------------------|
A-----------------------------------------------------------------------|
E-----------------------------------------------------------------------|
^^^Youll need to hear the song for correct timing^^^

E-----------------------------------------------------------------------|
B-----------13-11-----------13-11---------13/11/13-13-13-12-13/9--------|
G--13-15-13-------13-15-13-------13-15-13-------------------------------|
D-----------------------------------------------------------------------|
A-----------------------------------------------------------------------|
E-----------------------------------------------------------------------|
^^^Same as above^^^

E-----------------------------------------------------------------------|
B-----------------------------------------------------------------------|
G-8-8h9-9--9-9-8h9-8--9/11/9--8h9-9-9--8h9-9-9-9/11/9---8-98/6--9-9-9---|
D-----------------------------------------------------------------------|
A-----------------------------------------------------------------------|
E-----------------------------------------------------------------------|
^^^A little faster than intro^^^

E-----------------------------------------------------------------------|
B-------------------------------------------------------12p11-----------|
G-8-8-8/4/6--8--8--8---8h9-9-9--8h9-9/11/9--8h9-9/11/9-------12/14------|
D-----------------------------------------------------------------------|
A-----------------------------------------------------------------------|
E-----------------------------------------------------------------------|
^^^Same pace sort of^^^

E-----------------------------------------------------------------------|
B--9h10-10-10--12-10-1212-10-13-12-15-14-------13/12--------------------|
G----------------------------------------------------13/14--------------|
D-----------------------------------------------------------------------|
A-----------------------------------------------------------------------|
E-----------------------------------------------------------------------|
^^^Little Faster^^^
E-----------------------------------------------------------------------|
B----------13-11-------------13-11-11-------13-11-------------13-11-11--|
G-13-15-13-------13-15-13-15----------13-15-------13-15-13-15-----------|
D-----------------------------------------------------------------------|
A-----------------------------------------------------------------------|
E-----------------------------------------------------------------------|
^^^Song will give correct timing^^^

E-----------------------------------------------------------------------|
B-----------13-11-----------13-11---------13/11/13-13-13-12-13/9--------|
G--13-15-13-------13-15-13-------13-15-13-------------------------------|
D-----------------------------------------------------------------------|
A-----------------------------------------------------------------------|
E-----------------------------------------------------------------------|
^^^Same as Above^^^
Thats all I got for now, Sorry that the timing is a little complicated, but once you get 
then it sounds really nice. Ill try to finish the rest ASAP. Enjoy!

            
            
Suggest correction
Creating personal tab
Creating personal tab
You can edit any tab online and save it as your Personal.

You can edit, replace or remove any tab part or add personal notes – all changes will be seen only by you.

Personal tabs can be accessed anytime from any device, even offline.
Learn more »
Give kudos to tab author, rate the tab!
1 2 3 4 5
comments
print report bad tab
2 comments total.
+2 reply
bassnoob333 10 Aug 12, 2009 08:46 PM

thanks man! i'll play this song on my bass! thanks your awsome!

0 reply
Intercrew 40 Aug 20, 2009 01:33 PM

Ya thanks a lot for the TAB (I'm Intercrew, I forgot to post a comment XD) Thanks!

guest
You may want to rate the tab now too:
select rating
Wanna post a correction for this tab? Suggest correction