Oops, an error
Loading. Please wait.

Picture To Burn bass

version 2
version 2

Whole song

551 views 3 this week
no commentswrite comment
1 2 3 4 5
3 more votes to show rating
add to favorites
×
Save as Personal and add changes to this tab that will be seen only by you. Learn more ›
×
You can save this tab as Personal to edit and correct it or add notes. All changes will be seen only by you. Learn more »
launch autoscroll
font size
0
reset
guitar tuner
backing track
0:00
0:00
edit
Autoscroll
slow
fast
+/-
esc
set tempo
stop
-----------------------------------------------------------------------------
               Picture To Burn - Taylor Swift
-----------------------------------------------------------------------------

Tabbed by: Country Bass
E-mail: aaron.white8@education.nsw.gov.au

 Brilliant song by a brilliant singer/songwriter, here's my tab for Taylor Swift's Picture To Burn

This song Is really fun to play

Tuning: Standard

Intro

G|----------------------|
D|----------------------|
A|-------1-1--3-3--5-5--| x2
E|--3-3-----------------|

Verse

G|----------------------|
D|----------------------|
A|-------1-1--3-3--5-5--| x3
E|--3-3-----------------|

G|------------------------------|
D|------------------------------|
A|-------1-1--3-3--5-5--5-5--3--|
E|--3-3-------------------------|

Chorus

G|----------------------|    |-----------------|
D|----------------------|    |-----------------|
A|-------1-1--3-3--5-5--| x3 |--3-3-3-3-3-3-5--|
E|--3-3-----------------|    |-----------------|

G|----------------------|
D|----------------------|
A|-------1-1--3-3--5-5--| 
E|--3-3-----------------|

Chorus 2

G|----------------------|    |------------------------------|
D|----------------------|    |------------------------------|
A|-------1-1--3-3--5-5--| x3 |--3-3-3-3-3-3-5-5-5-5-5-5-5-5-|
E|--3-3-----------------|    |------------------------------|

G|----------------------|
D|----------------------|
A|-------1-1--3-3--5-5--|
E|--3-3-----------------|

Instrumental Break

G|-----------------------------------------------|
D|-----------------------------------------------|
A|-------1-1--3-3--5-5-------1-1--3-3--5-5--5-5--|
E|--3-3-----------------3-3----------------------|

Bridge

G|------------------------------------------------------|
D|------------------------------------------------------|
A|--3-3-3-3-3-3-3-3-5-5-5-5-5-5-5-5-3-3-3-3-2-2-2-2-5---|
E|------------------------------------------------------|

Chorus 3

G|--------------------------------------|
D|--------------------------------------|
A|------------------5-5------1---3---5--|
E|-----------------------3--------------|

G|--------------------------------------------------------|
D|--------------------------------------------------------|
A|-------1-1--3-3--5-5-------------------1-1-1-1-1-1-1-1--| 
E|--3-3-----------------3-3-3-3-3-3-3-3-------------------|

G|----------------------|
D|----------------------|
A|-------1-1--3-3--5-5--| x2
E|--3-3-----------------|

G|--------------------------------------------------------|
D|--------------------------------------------------------|
A|-------1-1--3-3--5-5-------------------1-1-1-1-1-1-1-1--| 
E|--3-3-----------------3-3-3-3-3-3-3-3-------------------|

G|----------------------|    |---|
D|----------------------|    |---|
A|-------1-1--3-3--5-5--| x3 |---|
E|--3-3-----------------|    |-3-|

Playing Order

Intro
Verse
Chorus
Intro
Verse
Chorus 2
Instrumental Break
Bridge
Chorus 3


Have Fun

 | /  slide up
 | \  slide down
 | h  hammer-on
 | p  pull-off
 | ~  vibrato
 | +  harmonic
 | x  Mute note
 =============================================================================

            
            
Suggest correction
Creating personal tab
Creating personal tab
You can edit any tab online and save it as your Personal.

You can edit, replace or remove any tab part or add personal notes – all changes will be seen only by you.

Personal tabs can be accessed anytime from any device, even offline.
Learn more »
Give kudos to tab author, rate the tab!
1 2 3 4 5
comments
print report bad tab
guest
You may want to rate the tab now too:
select rating
Wanna post a correction for this tab? Suggest correction