Oops, an error
Loading. Please wait.

Ronan tab

version 4
version 4

Whole song

139 views 1 this week
no commentswrite comment
1 2 3 4 5
2 more votes to show rating
add to favorites
×
Save as Personal and add changes to this tab that will be seen only by you. Learn more ›
×
You can save this tab as Personal to edit and correct it or add notes. All changes will be seen only by you. Learn more »
launch autoscroll
font size
0
reset
how to read this tab
guitar tuner
edit
Autoscroll
slow
fast
+/-
esc
set tempo
stop
Author
Difficulty
About this tab version
This is a more accurate way to play the song's tab and includes an alternate way to play with just chords. This has all the lyrics and notes on one screen. Was this info helpful? Yes No
-------------------------------------------------------------------------------
                            Ronan - Taylor Swift
-------------------------------------------------------------------------------
Tabbed by:
E-mail:

Tuning:Standard

e|---------------------------------0-----------------------------------------|
B|-------1--1-------1--1-------1-------1--1----------------------------------|
G|-----0---0------0---0------2---2---2---2-----------------------------------|
D|-------------------------3-------------------------------------------------|
A|---3----------0------------------------------------------------------------|
E|---------------------------------------------------------------------------|

(Tab repeated throughout entire song besides chorus and bridge) 
If you don't want to finger-pick the strumming pattern for the entire song is: D D DU

       C                  Am7
I remember your bare feet down the hallway
Fmaj7
I remember your little laugh
       C                   Am7
Race cars on the kitchen floor, plastic dinosaurs
Fmaj7
I love you to the moon and back
       C                   Am7
I remember your blue eyes looking into mine
Fmaj7
Like we had our own secret club
       C             Am7
I remember you dancing before bed time
Fmaj7
Then jumping on me, waking me up

e|---------------------------------0-----------------------------------------|
B|-------1--1-------1--1-------1-------1--1----------------------------------|
G|-----0---0------0---0------2---2---2---2-----------------------------------|
D|-------------------------3-------------------------------------------------|
A|---3----------0------------------------------------------------------------|
E|---------------------------------------------------------------------------|
       C                           Am7
I can still feel you hold my hand, little man
Fmaj7
And even the moment I knew
      C                Am7
You fought it hard like an army guy
Fmaj7
Remember I leaned in and whispered to you

(strum)
F                G             C           F
Come on baby with me, we're gonna fly away from here
F                 G(strum once)
You were my best four years

e|---------------------------------0-----------------------------------------|
B|-------1--1-------1--1-------1-------1-------------------------------------|
G|-----0---0------0---0------2---2---2---------------------------------------|
D|-------------------------3-------------------------------------------------|
A|---3----------0------------------------------------------------------------|
E|---------------------------------------------------------------------------|

C               Am7
I remember the drive home
Fmaj7
When the blind hope turned to crying and screaming "Why?"
C               Am7               Fmaj7
Flowers pile up in the worst way, no one knows what to say
About a beautiful boy who died
C              Am7
And it's about to be Halloween
                      Fmaj7
You could be anything you wanted if you were still here
C              Am7           Fmaj7     
I remember the last day when I kissed your face
And whispered in your ear

(strum)
F                 G            C           F
Come on baby with me, we're gonna fly away from here
                  G                         C         F
Out of this curtained room in this hospital grey,     we'll just disappear
F                 G            C            F
Come on baby with me, we're gonna fly away from here
F                G
You were my best four years
F                     Am7                 G
What if I'm standing in your closet trying to talk to you?
F                     Am7                G
What if I kept the hand-me-downs you won't grow into?
F                     Am7                G
And what if I really thought some miracle would see us through?
F(Strum once)         Am7(strum once)    G(strum once)
What if the miracle was even getting one moment with you?
F                 G             C          F          F G
Come on baby with me, we're gonna fly away from here 
F                 G             C          F
Come on baby with me, we're gonna fly away from here
F                 G
You were my best four years

e|---------------------------------0-----------------------------------------|
B|-------1--1-------1--1-------1-------1-------------------------------------|
G|-----0---0------0---0------2---2---2---------------------------------------|
D|-------------------------3-------------------------------------------------|
A|---3----------0------------------------------------------------------------|
E|---------------------------------------------------------------------------|
    C                      Am7
I remember your bare feet down the hallway
Fmaj7
I love you to the moon and back

            
            
Suggest correction
Creating personal tab
Creating personal tab
You can edit any tab online and save it as your Personal.

You can edit, replace or remove any tab part or add personal notes – all changes will be seen only by you.

Personal tabs can be accessed anytime from any device, even offline.
Learn more »
Give kudos to tab author, rate the tab!
1 2 3 4 5
comments
print report bad tab
guest
You may want to rate the tab now too:
select rating
Wanna post a correction for this tab? Suggest correction